Song name
# A B C D E F G H I J K L M N O P Q R S T U V W X Y Z

Stoned Jesus - Im The Mountain tab

 c|--------------------------------------------|
 f|--------------------------------------------|
a#|---9-9-7-----------------7--7-7--9----------|
D#|-9-------9--7-9-7-5-7----5--5-5--7--------5-|
 G|-7--------------------5-------------5-7-5---|
 C|-0------------------------------------------|

 c|--------------------------------------------|
 f|------------------------------------8-8--8-8|
a#|---9-9-7-----------------7--7-7--9--7-7--7-7|
D#|-9-------9--7-9-7-5-7----5--5-5--7----------|
 G|-7--------------------5---------------------|
 C|-0------------------------------------------|

 c|--------------------------------------------|
 f|--------------------------------------------|
a#|---9-9-7-----------------7--7-7--9----------|
D#|-9-------9--7-9-7-5-7----5--5-5--7--------5-|
 G|-7--------------------5-------------5-7-5---|
 C|-0------------------------------------------|

 c|-------------------------------------------------|
 f|-----------------------------------10--10-10-10--|
a#|---9-9-7-----------------7---9---11-7---7-7-7----|
D#|-9-------9--7-9-7-5-7----5---7---9---------------|
 G|-7--------------------5--------------------------|
 C|-0-----------------------------------------------|
Tap to rate this tab
# A B C D E F G H I J K L M N O P Q R S T U V W X Y Z