Song name
# A B C D E F G H I J K L M N O P Q R S T U V W X Y Z

Stoned Jesus - Im The Mountain tab

This is as much as I've gotten. Its 90% of the song. (Which is 13 minutes long.)

D|x-x-x-x-x-x-x-x-x-x-x-x-x-x-x-x-x-x-x-x-x-x-x-x-x-x-x-x-x-x-x-|
A|-------------15-13--------------------------------------------|
F|-------------------14--12-14-12-10-7--------------------------|
C|------12-12----------------------------3--3-3--5-----------3--|
G|---------------------------------------3--3-3--5--2----3-2----|
c|------0------------0------------------------------------------|

D|x-x-x-x-x-x-x-x-x-x-x-x-x-x-x-x-x-x-x-x-x-x-x-x-x-x-x-x-x-x-x-|
A|-------------15-13-----------------------------------6-6--6-6-|
F|-------------------14--12-14-12-10-7--------------------------|
C|------12-12----------------------------3--3-3--5--------------|
G|---------------------------------------3--3-3--5--2-----------|
c|------0------------0------------------------------------------|

D|x-x-x-x-x-x-x-x-x-x-x-x-x-x-x-x-x-x-x-x-x-x-x-x-x-x-x-x-x-x-x-|
A|-------------15-13--------------------------------------------|
F|-------------------14--12-14-12-10-7--------------------------|
C|------12-12----------------------------3--3-3--5-----------3--|
G|---------------------------------------3--3-3--5-----2-3-2----|
c|------0------------0------------------------------------------|

D|x-x-x-x-x-x-x-x-x-x-x-x-x-x-x-x-x-x-x-x-x-x-x-x-x-x-x-x-x-x-x-|
A|-------------15-13--------------------------------------------|
F|-------------------14--12-14-12-10-7---5--7--9--12------------|
C|------12-12----------------------------3--5--7--10------------|
G|--------------------------------------------------------------|
c|------0------------0------------------------------------------|


D|x-x-x-x-x-x-x-x-x-x-x-x-x-x-x-x-x-x-x-x-x-x-x-x-x-x-x-x-x-x-x-|
A|-------------15-13--------------------------------------------|
F|-------------------14--12-14-12-10-7--------------------------|
C|------12-12----------------------------3--3-3--5-----------3--|
G|---------------------------------------3--3-3--5-----2-3-2----|
c|------0------------0------------------------------------------|

D|x-x-x-x-x-x-x-x-x-x-x-x-x-x-x-x-x-x-x-x-x-x-x-x-x-x-x-x-x-x-x-|
A|-------------15-13-----------------------------------6-6--6-6-|
F|-------------------14--12-14-12-10-7--------------------------|
C|------12-12----------------------------3--3-3--5--------------|
G|---------------------------------------3--3-3--5--2-----------|
c|------0------------0------------------------------------------|

D|x-x-x-x-x-x-x-x-x-x-x-x-x-x-x-x-x-x-x-x-x-x-x-x-x-x-x-x-x-x-x-|
A|-------------15-13--------------------------------------------|
F|-------------------14--12-14-12-10-7--------------------------|
C|------12-12----------------------------3--3-3--5-----------3--|
G|---------------------------------------3--3-3--5-----2-3-2----|
c|------0------------0------------------------------------------|

Breakdown

D|-------------------------------------------------------------|
A|-------------15-13-------------------------------------------|
F|-------------------14--12-14-12-10-7-------------------------|
C|------12-12----------------------------3--5--7--10-----------|
G|---------------------------------------3--5--7--10-----------|
c|------0------------0-------------------3--5--7--10-----------|

D|-------------------------------------------------------------|
A|-------------15-13-------------------------------------------|
F|-------------------14--12-14-12-10-7-------------------------|
C|------12-12----------------------------3--5---------3--------|
G|---------------------------------------3--5---2-3-2----------|
c|------0------------0-------------------3--5------------------|
Repeat(x2)

Long pause with bass


D|-----8---7---6---2-------------------------------------------|
A|-----7---6---5---1-------------------------------------------|
F|-----5---4---3---0-------------------------------------------|
C|-------------------------------------------------------------|
G|-------------------------------------------------------------|
c|-------------------------------------------------------------|
 Repeat /w lyrics
 After this is the solo which you can have fun with as you please.

D|-------------------------------------------------------------|
A|-------------------------------------------------------------|
F|-----------10---12/14-12-10----------------------------------|
C|--12-10-12------------------12-------------------------------|
G|-------------------------------------------------------------|
c|-------------------------------------------------------------|

This is the base of the rest aside from some parts where why don't you just be creative.
Tap to rate this tab
# A B C D E F G H I J K L M N O P Q R S T U V W X Y Z