Song name
# A B C D E F G H I J K L M N O P Q R S T U V W X Y Z

Stoned Jesus - Indian tab

Intro:
 c|---------------------------------------------------------------------------------|
 g|---------------------------------------------------------------------------------|
d#|------------7-7-7-7---------------7-7-7-7---------------7-7-7-7------------------|
A#|-9--9--9----5-5-5-5----9--9--9----5-5-5-5----9--9--9----5-5-5-5------------------|
 F|-7--7--7---------------7--7--7---------------7--7--7-------------7-5-----------5-|
 C|---------------------------------------------------------------------7-6-5-6-7---|

Verse:

Bass guitar(playing through the whole verse):
d#|---------------------------------------------------------------|
A#|---------------------------------------------------------------|
 F|-7--7--7-7-5----------------------------------------5-----6----|
 C|-------------7-6-5--5--5-5-0-3/5-3--3--3-3-3-0-3/5-----7-----7-|

Electric guitar:
 c|---------------------------------------------------------------|
 g|---------------------------------------------------------------|
d#|---------------------------------------------------------------|
A#|---------------------------------------------------------------|
 F|----------------------------------------------------5-----6----|
 C|-------------------------------------------------------7-----7-|

Both guitars:
 c|---------------------------------------------------------------|
 g|---------------------------------------------------------------|
d#|---------------------------------------------------------------|
A#|---------------------------------------------------------------|
 F|-7--7--7-7-5----------------------------------------5-----6----|
 C|-------------7-6-5--5--5-5-0-3/5-3--3--3-3-3-0-3/5-----7-----7-|

 c|---------------------------------------------------------------|
 g|---------------------------------------------------------------|
d#|-9-------------------------------------------------------------|
A#|-9---------------7-7-------------5-----------------------------|
 F|-7---------------7-7-------------5------------------5-----6----|
 C|-0---------------5-5-------------3---------------------7-----7-|

 c|---------------------------------------------------------------|
 g|---------------------------------------------------------------|
d#|---------------------------------------------------------------|
A#|---------------------------------------------------------------|
 F|-7--7--7-7-5----------------------------------------5-----6----|
 C|-------------7-6-5--5--5-5-0-3/5-3--3--3-3-3-0-3/5-----7-----7-|

 c|---------------------------------------------------------------|
 g|---------------------------------------------------------------|
d#|-9-------------------------------------------------------------|
A#|-9---------------7-7-------------5-----------------------------|
 F|-7---------------7-7-------------5------------------5-----6----|
 C|-0---------------5-5-------------3---------------------7-----7-|

 c|---------------------------------------------------------------------------------|
 g|---------------------------------------------------------------------------------|
d#|------------7-7-7-7---------------7-7-7-7---------------7-7-7-7------------------|
A#|-9--9--9----5-5-5-5----9--9--9----5-5-5-5----9--9--9----5-5-5-5------------------|
 F|-7--7--7---------------7--7--7---------------7--7--7-------------7-5-----------5-|
 C|---------------------------------------------------------------------7-6-5-6-7---|

 c|---------------------------------------------------------------|
 g|---------------------------------------------------------------|
d#|---------------------------------------------------------------|
A#|---------------------------------------------------------------|
 F|-7--7--7-7-5----------------------------------------5-----6----|
 C|-------------7-6-5--5--5-5-0-3/5-3--3--3-3-3-0-3/5-----7-----7-|

 c|---------------------------------------------------------------|
 g|---------------------------------------------------------------|
d#|-9-------------------------------------------------------------|
A#|-9---------------7-7-------------5-----------------------------|
 F|-7---------------7-7-------------5------------------5-----6----|
 C|-0---------------5-5-------------3---------------------7-----7-|

 c|---------------------------------------------------------------|
 g|---------------------------------------------------------------|
d#|---------------------------------------------------------------|
A#|---------------------------------------------------------------|
 F|-7--7--7-7-5----------------------------------------5-----6----|
 C|-------------7-6-5--5--5-5-0-3/5-3--3--3-3-3-0-3/5-----7-----7-|

 c|---------------------------------------------------------------|
 g|---------------------------------------------------------------|
d#|-9-------------------------------------------------------------|
A#|-9---------------7-7-------------5-----------------------------|
 F|-7---------------7-7-------------5------------------5-----6----|
 C|-0---------------5-5-------------3---------------------7-----7-|

 c|---------------------------------------------------------------|
 g|---------------------------------------------------------------|
d#|---------------------------------------------------------------|
A#|---------------------------------------------------------------|
 F|-7-------7-5----------------------------------------5-----6----|
 C|-------------7-6-5------5-0-3/5-3----------3-0-3/5-----7-----7-|

Riff 1:
 c|--------------------------------------|--------------------------------------|
 g|--------------------------------------|--------------------------------------|
d#|--------------------------------------|--------------------------------------|
A#|--------------------------------------|--------------------------------------|
 F|----5----8-7-5---5--------------------|----5----8-7-5---5--------------------|
 C|-7-----7-------7----------------------|-7-----7-------7----------------------|

 c|--------------------------------------|--------------------------------------|
 g|--------------------------------------|--------------------------------------|
d#|--------------------------------------|--------------------------------------|
A#|--------------------------------------|--------------------------------------|
 F|----5----8-7-5---5--------------------|----5----8-7-5---5--7-----------7--8--|
 C|-7-----7-------7----------------------|-7-----7-------7----5-----------5--6--|


/ - slide up
Tap to rate this tab
# A B C D E F G H I J K L M N O P Q R S T U V W X Y Z