Song name
# A B C D E F G H I J K L M N O P Q R S T U V W X Y Z

Stoned Jesus - Im The Mountain tab

tuning: drop c
intro:
                           let ring
|----------------------------(0)--|   |---------------------------------|
|---------------------------------|   |---------------------------------|
|-----7-------7-------7-----------|x12|-----2-------2-------3-------5---|
|---7---7---7---7---7---7---5---5-|   |---2---2---2---2---3---3---5---5-|
|-5-------5-------5-------3-------|   |-0-------0-------1-------3-------|
|---------------------------------|   |---------------------------------|

|----------------------------(0)--|  |---------------------------------|
|---------------------------------|  |---------------------------------|
|-----7-------7-------7-----------|x4|-----2-------2-------3-------5---|
|---7---7---7---7---7---7---5---5-|  |---2---2---2---2---3---3---5---5-|
|-5-------5-------5-------3-------|  |-0-------0-------1-------3-------|
|---------------------------------|  |---------------------------------|

|----------------------------(0)--|   |---------------------------------|
|---------------------------------|   |---------------------------------|
|-----7-------7-------7-----------|x12|-----2-------2-------3-------5---|
|---7---7---7---7---7---7---5---5-|   |---2---2---2---2---3---3---5---5-|
|-5-------5-------5-------3-------|   |-0-------0-------1-------3-------|
|---------------------------------|   |---------------------------------|

|---------------------------(0)---|  |------------------------------------|
|---------------------------------|  |------------------------------------|
|-----7-------7-------7-----------|x4|-----2-------2-------3-------5----7-|
|---7---7---7---7---7---7---5---5-|  |---2---2---2---2---3---3---5---5--7-|
|-5-------5-------5-------3-------|  |-0-------0-------1-------3--------5-|
|---------------------------------|  |------------------------------------|
                                                     {..play slowly......}

solo:
let any open notes ring


|-----------------------------------------------------|
|-------15-13-----------------------------------------|
|-------------14-14-12-14-12-10-----------------------|
|-12-12-------0-----0-----------12-10--3-33-5-------3-|
|-0------------------------------------3-33-5--2h3p2--|
|-----------------------------------------------------|



|------------------------------------------------------|
|-------15-13----------------------------------x-66-66-|
|-------------14-14-12-14-12-10----------------x-55-55-|
|-12-12-------0-----0-----------12-10--3-33-5--x-33-33-|
|-0------------------------------------3-33-5----------|
|------------------------------------------------------|



|-----------------------------------------------------|
|-------15-13-----------------------------------------|
|-------------14-14-12-14-12-10-----------------------|
|-12-12-------0-----0-----------12-10--3-33-5-------3-|
|-0------------------------------------3-33-5--2h3p2--|
|-----------------------------------------------------|


|-----------------------------------------------|
|-------15-13-----------------------------------|
|-------------14-14-12-14-12-10-----------------|
|-12-12-------0-----0-----------12-10--5-7-9-12-|
|-0------------------------------------3-5-7-10-|
|-----------------------------------------------|

i hope you find this tab helpful. im still working on the rest of the song but this is 
what i have for you so far. :)
Tap to rate this tab
# A B C D E F G H I J K L M N O P Q R S T U V W X Y Z