Guitaretab - guitar tabs
Song name
# A B C D E F G H I J K L M N O P Q R S T U V W X Y Z

Stonefree - Lss Last Song Syndrome tab

Highlighted       Show chord diagrams
Title       : L.S.S. Last Song Syndrome
Artist      : Stonefree	

Ear tabber  : ROGEM S. BATTUNG
Address     : Palawan St. Sampaloc Manila
E-mail add 1: Guitarizta_rogem@yahoo.com / Acoustic_rogem@yahoo.com



Contact no  : 09103887102
Date        : Aug 5 2007


|==========================================================================|
|============================READ=FIRST====================================|
|==========================================================================|

ROGEM -> sa mga chord user na Gusto matuto na gumamit ng tab my
         instruction send kyo ng message sa Friendster " 
         Guitarizta_rogem@yahoo.com or copy nyo nalng dun 
         sa site na ginwa ko type nyo sa address bar
         e2ng link na to
         http://rogem08.angelfire.com/guitarzz/Muzikero.htm

ROGEM -> pag na copy nyo na 2ng tab na 2 pag mag gigitra na keo
         make sure na naka Eb tunning ung gitara nyo ok .
         
         
ROGEM -> Dedicate ko 2 sa lahat ng taga EARIST hehehe
         lahat ng Friends ko ng BS APPLIED 
         PHYSICS mga BS. COMPUTER SCIENCE mga BS. MATH at mga
         BS.PSYCHOLOGY 
         lahat ng taga C.A.S.

ROGEM -> any suggestion and Comment txt 09103887102 send kyo ng Msj sa 
         Friendster Guitarizta_rogem@yahoo.com


|==================================================|
|==================================================|
|						   |
|       Last Song Syndrome  StoneFree              |
|						   |
|==================================================|
|==================================================|

Tabbed by: ROGEM S. BATTUNG
Email	 : Guitarizta_rogem@yahoo.com

Tuning   : Eb Ab Db Gb Bb Eb


ROGEM -> kayo na mag figure ng strumming pattern
         basic strumming lang naman un eh                              
                 

Do this chords on verses
  GTR - 1       
     C             Am           F            C
e|---0---------|---0--------|---1--------|---0---------|
B|---1---------|---1--------|---1--------|---1---------|
G|---0---------|---2--------|---2--------|---0---------|
D|---2---------|---2--------|---3--------|---2---------|
A|---3---------|---0--------|---3--------|---3---------|
E|---x---------|---x--------|---1--------|---x---------|


[ 1st Verse ]

     C
The lights are now on us
     Am
The stage surrounds us
      F
But itís you
                 C
Itís you i remember

 
[ Tab from: http://www.guitaretab.com/s/stonefree/93808.html ]
   GTR - 1
     C             Am           F            C
e|---0---------|---0--------|---1--------|---0---------|
B|---1---------|---1--------|---1--------|---1---------|
G|---0---------|---2--------|---2--------|---0---------|
D|---2---------|---2--------|---3--------|---2---------|
A|---3---------|---0--------|---3--------|---3---------|
E|---x---------|---x--------|---1--------|---x---------|

     C
This maybe our best gig
     Am
The most well attended
     F
But itís you
                  C
That i wanna be with

 


   GTR - 1
     C             Am           F            C
e|---0---------|---0--------|---1--------|---0---------|
B|---1---------|---1--------|---1--------|---1---------|
G|---0---------|---2--------|---2--------|---0---------|
D|---2---------|---2--------|---3--------|---2---------|
A|---3---------|---0--------|---3--------|---3---------|
E|---x---------|---x--------|---1--------|---x---------|

      C
Cos whenever youíre not here
      Am
Thereís this void i feel within
      F
Itís you i crave
      C
And need





[Chorus]
     C
Cos iím here, and youíre there
     Am
Itís too much for me to bear
     F                     C
So hold on, soon iíll be home




[ 2nd Verse ]
    C
The times ???
    Am
Gets too familiar
    F
What i want
    C
Is to be with you

    C
Cos the last song syndrome here
    Am
Is your voice i hear so clear
    F
You said youíll wait
    C
For me



[repeat Chorus]

   use this power chords
     A             G            F            
e|-------------|------------|------------|
B|-------------|------------|------------|
G|-------------|------------|------------|
D|---7-7-7-----|---5-5------|---3~-------|
A|---7-7-7-----|---5-5------|---3~-------|
E|---5-5-5-----|---3-3------|---1~-------|


[Bride]
Am G F
	I miss the way you touch my face
Am G F
	I miss the way to say my name
Am G F
	I miss you, oh baby


     Bb            G                        
e|-------------|------------|
B|-------------|------------|
G|--3----------|------------|
D|--3-(8x)-----|---5--------|
A|--1----------|---5-(8x)---|
E|-------------|---3--------|
Bb                      G
I wish youíre here with me




     C
Cos iím here, and youíre there
     Am
Itís too much for me to bear
     F
So hold on

[ repeat chorus ]
Related for Lss Last Song Syndrome tab