Guitaretab - guitar tabs
Song name
# A B C D E F G H I J K L M N O P Q R S T U V W X Y Z

Stonegard - White Shaded Lie tab

-------------------------------------------------------------------------------
			     White shaded lie - stonegard
-------------------------------------------------------------------------------
  Av: Henrik

Tuning: DADGBE

intro  Clean

   bass                            2x                      4x
e|--------|---------------------------|----------------------|
B|--------|---------------------------|----------------------|
G|--------|---------------------------|-----14--13----12--10-|
D|--------|-----7-----6-------5----3--|---15--15----13--13---|
A|--------|---8-8---8-7----6-6--6--5--|----------------------|
D|--------|---------------------------|----------------------|


Destortion

Riff 1.  en gitar 2x| riff 2   begge gitarer         1x                      4x
e|------------------|-----------------------------------|----------------------|
B|------------------|-----------------------------------|----------------------|
G|------------------|-----------------------------------|----------------------|
D|------------------|---------------------------5-5-5-5-|----------------------|
A|--5--5--5-3-3-6-3-|----5-5-3-3-6-3--5--5--5---3-3-3-3-|--5--5--5-3-3-6-3-----|
D|---00-00-0-0-0-0--|--00-0-0-0-0-0----00-00-0----------|---00-00-0-0-0-0------|
     .. .. . . . .     .. . . . . .    .. .. .              .. .. . . . .

                                  1x                                      1x
e|-----------------------------------|----------------------------------------|
B|-----------------------------------|----------------------------------------|
G|-----------------------------------|----^-----------------------------------|
D|----^----------------------5-5-5-5-|----5---------------------5-5-5-5-------|
A|----5-5-3-3-6-3--5--5--5---3-3-3-3-|------5-3-3-6-3--5--5--5--3-3-3-3-------|
D|--00-0-0-0-0-0----00-00-0----------|--00-0-0-0-0-0----00-00-0---------------|
    .. . . . . .    .. .. .             .. . . . . .    .. .. . 

 Riff 3                          4x
e|----------------------------------|
B|----------------------------------|
G|--7------9------11------12--12/14-|
D|----------------------------------|
A|--5------7------8-------10--10/12-|
D|---0000---0000----0000------------|
     ....   ....    ....

  riff 4
e|----------------------------------------------------------------------------------------------|
B|----------------------------------------------------------------------------------------------|
G|----------------------------------------------------------------------------------------------|
D|----------------------------------------------------------------------------------------------|
A|-1p0--------1p0--------1p0--------1p0--------1p0--------1p0--------1p0---------5p0----3p0-----|
D|-1p0-0-0-0--1p0-0-0-0--1p0-0-0-0--1p0-0-0-0--1p0-0-0-0--1p0-0-0-0--1p0-0-0-0------000----000--|
       . . .      . . .      . . .      . . .      . . .      . . .      . . .      ...     ...


  Verse
e|---------------------------------------------------------------------------------------|
B|---------------------------------------------------------------------------------------|
G|---------------------------------------------------------------------------------5/7-7-|
D|---------------------------------------------------------------------------------------|
A|---------------5p0-------------5p0---3p0----------------------5p0----------------3/5-5-|
D|-22222222222222----000000000000---000----000--222222222222222-----0000000000000--------|
   ..............    ............   ...    ...  ...............     .............

e|--------------------------------------------|-------------------|
B|--------------------------------------------|-------------------|
G|--55555555-66666666--7------7------7------7-|--55555555-6666666-|
D|--------------------------------------------|-------------------|
A|--33333333-44444444--5------5------5------5-|--33333333-4444444-|
D|-----------------------00-0---00-0---00-0---|-------------------|

                                  2x
e|----------------------------------|
B|----------------------------------|
G|--7------9------11------12--12/14-|
D|----------------------------------|
A|--5------7------8-------10--10/12-|
D|---0000---0000----0000------------|
     ....   ....    ....
                                                                 2x
e|------------------------------------------------------------------|
B|------------------------------------------------------------------|
G|--7777/11111111/9999/12121212/10101010/14141414/12121212/15151515-|
D|------------------------------------------------------------------|
A|--5555/-8-8-8-8/7777/10101010/-8-8-8-8/12121212/10101010/13131313-|
D|------------------------------------------------------------------|

                     4x
e|----------------------|
B|----------------------|
G|----------------------|
D|----------------------|
A|--5--5--5-3-3-6-3-----|
D|---00-00-0-0-0-0------|
    .. .. . . . . 

e|-----------------------|
B|-----------------------|
G|-----------------------|
D|-----------------------|
A|-1p0--------1p0--------|
D|-1p0-0-0-0--1p0-0-0-0--|
       . . .      . . .      

e|----------------------------------------------------------------------------------------|
B|----------------------------------------------------------------------------------------|
G|----------------------------------------------------------------------------------5/7-7-|
D|----------------------------------------------------------------------------------------|
A|---------------5p0-------------5p0-----3p0----------------------5p0---------------3/5-5-|
D|-22222222222222----000000000000----000-----000--222222222222222-----0000000000000-------|
   ..............    ............    ...     ...  ...............     .............
[ Tab from: http://www.guitaretab.com/s/stonegard/64237.html ]
e|-----------------------------------------------------------------------------------------------------------|
B|-----------------------------------------------------------------------------------------------------------|
G|--10101010101010101010101010101010-9999999999999999--7777777777777777--99999999--1010101010101010---12-13--|
D|-----------------------------------------------------------------------------------------------------------|
A|--8-8-8-8-8-8-8-8-8-8-8-8-8-8-8-8--7777777777777777--5555555555555555--77777777--8-8-8-8-8-8-8-8----10-11--|
D|-----------------------------------------------------------------------------------------------------------|

                                  2x
e|----------------------------------|
B|----------------------------------|
G|--7------9------11------12--12/14-|
D|----------------------------------|
A|--5------7------8-------10--10/12-|
D|---0000---0000----0000------------|
     ....   ....    ....

e|------------------------------------------------------------------|
B|------------------------------------------------------------------|
G|--7777/11111111/9999/12121212/10101010/14141414/12121212/15151515-|
D|------------------------------------------------------------------|
A|--5555/-8-8-8-8/7777/10101010/-8-8-8-8/12121212/10101010/13131313-|
D|------------------------------------------------------------------|

e|---------------------------------------------------------------------------------------------------|
B|---------------------------------------------------------------------------------------------------|
G|----------------------14--14-13--13--------------------14--14-13--13--12--12-10--10-9hold and bend-| 
D|------------------------15-----14------------------------15-----14------13-----12------------------|
A|---5--5--5-5--5--5-------------------5--5--5-5--5--5-----------------------------------------------|
D|----00-00-0-00-00-0-------------------00-00-0-00-00-0----------------------------------------------|


e|----------------------------------------------------------|
B|----------------------------------------------------------|
G|-----141514-13/14-13bend-12-12p13p12p13p12p13p12p13p12----|
D|---15-----------------------------------------------------|
A|----------------------------------------------------------|
D|----------------------------------------------------------|


  Clean
e|---------------------------|----------------------|
B|---------------------------|----------------------|
G|---------------------------|-----14--13----12--10-|
D|-----7-----6-------5----3--|---15--15----13--13---|
A|---8-8---8-7----6-6--6--5--|----------------------|
D|---------------------------|----------------------|



  over clean:             over solo:
e|----------------------|-----------------------|
B|----------------------|-----------------------|
G|----------------------|-----------------------|
D|----------------------|-----------------------|
A|----------------------|-0-0000-0-0-0-0-0000---|
D|--0-0000-0-0-0-0-0000-|-0-0000-0-0-0-0-0000---|
    . .... . . . .  ....    .... . .   . ....

   Solo:                         2x
e|---------------------------------|
B|---------------------------------|
G|------14--13hold----12--10hold---|
D|----15--15--------13--13---------|
A|---------------------------------|
D|---------------------------------|


                 4x  over:
e|-----------------|------------------------|
B|-----------------|------------------------|
G|---7--9--10--12--|------------------------|
D|-----------------|------------------------|
A|---5--7--8---10--|--0-0000-0-0-0-0-0000---|
D|-----------------|--0-0000-0-0-0-0-0000---|
                        .... . .   . ....

  1. guitar alene først så med 2.gitar
e|---------------------------------------------------------------------------|
B|---------------------------------------------------------------------------|
G|---121212121212121212121212121212121212121212121212121212------------------|
D|---------------------------------------------------------------------------|
A|---101010101010101010101010101010101010101010101010101010------------------|
D|---------------------------------------------------------------------------|

  2.gitar
e|---------------------------------------------------------------------------|
B|---------------------------------------------------------------------------|
G|---55555555555555555555555555555555555555555555555555555-------------------|
D|---------------------------------------------------------------------------|
A|---33333333333333333333333333333333333333333333333333333-------------------|
D|---------------------------------------------------------------------------|


e|---------------------------------------------------------------------------|
B|---------------------------------------------------------------------------|
G|---77777777/99999999/1010101010101010/1212121212121212---------------------|
D|---------------------------------------------------------------------------|
A|---55555555/77777777/8-8-8-8-8-8-8-8-/1010101010101010---------------------|
D|---------------------------------------------------------------------------|

e|------------------------------------------------------------------|
B|------------------------------------------------------------------|
G|--7777/11111111/9999/12121212/10101010/14141414/12121212/15151515-|
D|------------------------------------------------------------------|
A|--5555/-8-8-8-8/7777/10101010/-8-8-8-8/12121212/10101010/13131313-|
D|------------------------------------------------------------------|

                      4x
e|----------------------|
B|----------------------|
G|----------------------|
D|----------------------|
A|--5--5--5-3-3-6-3-----|
D|---00-00-0-0-0-0------|
     .. .. . . . .

e|-----------------------------------|-----------------------------------|
B|-----------------------------------|-----------------------------------|
G|-----------------------------------|----^------------------------------|
D|----^------------------------------|----5------------------------------|
A|----5-5-3-3-6-3--5--5--5-3-3-6-3---|------5-3-3-6-3--5--5--5-3-3-6--3--|
D|--00-0-0-0-0-0----00-00-0-0-0-0----|--00-0-0-0-0-0----00-00-0-0-0-0----|
    .. . . . . .    .. .. . . . .       .. . . . . .    .. .. . . . . 

  end:
e|----------|
B|----------|
G|----------|
D|----------|
A|--0-0000--|
D|--0-0000--|
    . ....




| /  slide up
| \  slide down
| h  hammer-on
| p  pull-off
| ~  vibrato
| +  harmonic
| .  Mute note
===============================================================================
Related for White Shaded Lie tab