Song name
# A B C D E F G H I J K L M N O P Q R S T U V W X Y Z

Stonegard - At Arms Length tab

On this tab I have just tabbed one guitar ...

Artist: Stonegard
Tabbed By: Mathias Risdal 
Album: Arrows .. Bye the album, it Rocks!!
Tuning: Drop D


|--------------------------------------------------------------------------|
|--------------------------------------------------------------------------|
|--7----9---10----12----14------17-----------------------------------------|
|--x----x----x-----x-----x-------x-----x2----------------------------------|
|--5----7----8----10----12------15-----------------------------------------|
|--0----0----0-----0-----0-------0-----------------------------------------|



 On this part You just play the same Chords but you just play it many times at every chord.  

(When you switch chord you can take a little slide.)

 
|--------------------------------------------------------------------------------|
|--------------------------------------------------------------------------------|
|--7-7-7-7--9-9-9-9--10-10-10-10---12-12-12---14-14-14-14---17-17-17-------------|
|--x-x-x-x--x-x-x-x---x--x--x--x----x--x--x----x--x--x--x----x--x--x-------------|
|--5-5-5-5--7-7-7-7---8--8--8--8---10-10-10---12-12-12-12---15-15-15-------------|
|--0-0-0-0--0-0-0-0---0--0--0--0----0--0--0----0--0--0--0----0--0--0-------------|




|--------------------------------------------------------------------------------|
|--------------------------------------------------------------------------------|
|--7-7-7-7--9-9-9-9--10-10-10-10---12-12-12---14-14-14-14---17-17-17-------------|
|--x-x-x-x--x-x-x-x---x--x--x--x----x--x--x----x--x--x--x----x--x--x-------------|
|--5-5-5-5--7-7-7-7---8--8--8--8---10-10-10---12-12-12-12---15-15-15---11-11-11--|
|--0-0-0-0--0-0-0-0---0--0--0--0----0--0--0----0--0--0--0----0--0--0---11-11-11--|

That was the intro ...
Tap to rate this tab
# A B C D E F G H I J K L M N O P Q R S T U V W X Y Z