Guitaretab - guitar tabs
Song name
# A B C D E F G H I J K L M N O P Q R S T U V W X Y Z

Stonegard - From Dusk Till Doom tab

Artist: Stonegard
Tabbed By: Mahias Risdal
Album:From Dusk Till Doom
Tuning: Drop D


E|--------------------------------------------------------------------------|
B|--------------------------------------------------------------------------|
G|--------------------------------------------------------------------------|
D|--------------------------------------------------------------------------|
A|--2h3-0-0-0-0-0-0-5h6-0-0-8h9-0-0-2h3--0-0-0-0-0--5-4---------------------|
D|------0-0-0-0-0-0-----0-0-----0-0------0-0-0-0-0--5-4---------------------|
          Pm...         Pm.     Pm.         Pm...



|--------------------------------------------------------------------------|
|--------------------------------------------------------------------------|
|--------------------------------------------------------------------------|x3       
|--------------------------------------------------------------------------|     
|-0-0-0-0-0-0-0-2h3-0-0-0-0-0-0-5h6-0-0-8h9-0-0-2h3--0-0-0-0-0--5-4--------|
|-0-0-0-0-0-0-0-----0-0-0-0-0-0-----0-0-----0-0------0-0-0-0-0--5-4--------|
          Pm...        Pm..          Pm.     Pm.         Pm...  

Just play that part until you got the rhythm. 

[ Tab from: http://www.guitaretab.com/s/stonegard/82940.html ]
|----------------------------------------------------------------------------------------|
|----------------------------------------------------------------------------------------|
|----------------------------------------------------------------------------------------|X2   
|----------------------------------------------------------------------------------------|     
|---5-5-5-5-5-5-5-5-5-5-5-5-5--4-4-4-4-4-4-4-4--1-1-1-1-1-1--0-0-0-0-0-0-----------------|
|---5-5-5-5-5-5-5-5-5-5-5-5-5--4-4-4-4-4-4-4-4--1-1-1-1-1-1--0-0-0-0-0-0-----------------|
          ...............PM...............PM............PM........
I could have danced with the demons of the underworld . Swaloing coal

 

|--------------------------------------------------------------------------|
|--------------------------------------------------------------------------|
|--------------------------------------------------------------------------|X2 
|--------------------------------------------------------------------------|
|--2h3-0-0-0-0-0-0-5h6-0-0-8h9-0-0-2h3--0-0-0-0-0--5-4---------------------|
|------0-0-0-0-0-0-----0-0-----0-0------0-0-0-0-0--5-4---------------------|
          Pm...         Pm.     Pm.         Pm...
Eather way i wont win . so where do i begin.


|--------------------------------------------------------------------------|
|--------------------------------------------------------------------------|
|--------------------------------------------------------------------------| 
|--------------------------------------------------------------------------|
|---5-5-5-5-5-5--8-8-8-8--7-7-7-7--3-3-3-3-3--2-2-2-2----------------------|
|---5-5-5-5-5-5--8-8-8-8--7-7-7-7--3-3-3-3-3--2-2-2-2----------------------|
    ....PM..................PM...........PM........
    
       Thundering! I seek forgivnes from the dead. For
                     what even a sin.   

|--------------------------------------------------------------------------|
|--------------------------------------------------------------------------|
|--------------------------------------------------------------------------| 
|--------------------------------------------------------------------------|
|---5-5-5-5-5-5--8-8-8-8--7-7-7-7--11-11-11-11-11-11--12-12-12-12----------|
|---5-5-5-5-5-5--8-8-8-8--7-7-7-7--11-11-11-11-11-11--12-12-12-12----------|
    ....PM.........PM...........PM............PM...........PM.....

Sorry i didn't tabbed the hole song .. but now you can do the rest ;)
Related for From Dusk Till Doom tab
Advertisement will be closed in 10 seconds