Song name
# A B C D E F G H I J K L M N O P Q R S T U V W X Y Z

Stoney Larue - Oklahoma Breakdown tab

Help us improve GuitareTab! Take a short survey!
By:Stoney Larue
Written By: Mike Hosty
Tabbed By: Lee Nuckols

e--------------------------------------------------|
B--------------------------------------------------|
G------6-6b7-----------------6-6b7----------14-----|
D---/7--------7-7~--------/7--------7---/14----14~-|
A--------------------------------------------------|
E--------------------------------------------------|


e-------------------------------------------------|
B-------------------------------------------------|
G------6-6b7----/9--9/7-7/6----------6-6b7--------|
D---/7--------7-------------7~----/7--------7-7~--|
A-------------------------------------------------|
E-------------------------------------------------|

The bend on the 6th fret of the g string should be done with your index finger
Related for Oklahoma Breakdown tab