Song name
# A B C D E F G H I J K L M N O P Q R S T U V W X Y Z

Stooges - T V Eye tab

Help us improve GuitareTab! Take a short survey!
From: "Niklas Aronsson" 
Date: Fri, 8 Dec 1995 16:05:26 +0100
Subject: TAB:The Stooges: Tv eye

The Stooges-TV-Eye

E----------------------------------------------------------------------
B---------------------------------------------------------------------
G---------5------7B-5----5-----------------------------------------
D-7-7-7-5--7-7-----5-7-5-7----------------------------------------
A-0-0-0-----0-0-------0----0----------------------------------------
E---------------------------------------------------------------------

This is the riff for the verse. Just keep on playing until you get to 
the chorus:

E---------------------------------------------------------------------
B---------------------------------------------------------------------
G---------5------5------5----5------------------------------------
D-7-7-7-5--7-7-5-7-7-5-7-5-7---------------------------------------
A-0-0-0-----0-0---0-0----0---0----------------------------------------
E---------------------------------------------------------------------

On the last line of the chorus (She's got a TV-eye on me)  go back to 
the verse riff.

After the solo play the chorus riff a few times and then bend the 
 D- and G- strings on the 5th and 7th fret. But who cares do as you 
like. When it comes to the climax play an open A chord and yell "right 
on." 

PS! Don't forget to cry Looooooooooooooooooord!at the beginning
Related for T V Eye tab