Song name
# A B C D E F G H I J K L M N O P Q R S T U V W X Y Z

Stoppok - Scheisse Am Schuh tab

Scheisse am Schuh
Words & music: Stoppok - Ed.Grundvermögen
Album: Solo


- DADGAD-Tuning / no capo -


VERSE:

D------0----------0---------------------|
A------0----------0---------------------|
G--x-2-2----0-2-4-2--x-2-2-0-----2-2-x--|  play
D--4---0--4-------0--4-------4-2-0-0-2--|  twice
A------0----------0---------------------|
D---------------------------------------|

OR play the following chords:

   D                             G   A
D--0---------------------------------0--|
A--0---------------------------------0--|
G--2-----------------------------0---2--|
D--0-----------------------------0---2--|
A--0-----------------------------x------|
D--0-----------------------------5------|



CHORUS:

D--2--------------------------|
A--0--------------------------|
G--2---0-2-4-2-0-----0-2-0----|
D--2-4-----------4-4-------2--|
A--0--------------------------|
D-----------------------------|

D--2---------------0----0----0--|
A--0---------------0----0----0--|
G--2---0-2-4-2-0---x----x----0--|
D--2-4-----------4----2------0--|
A--0-------------------------x--|
D--------------------------5-5--|


OR play the following chords:

   A D     G     D4?        A
D--2-0-----------0----------0--|
A--0-0-----------0----------0--|
G--2-2-----0-----x----------x--|
D--2-0-----0-----4----------2--|
A--0-0-----x-------------------|
D----------5-------------------|

   A D     G     D4?   A    G
D--2-0-----------0-----0----0--|
A--0-0-----------0-----0----0--|
G--2-2-----0-----x-----x----0--|
D--2-0-----0-----4-----2----0--|
A--0-0-----x----------------x--|
D----------5----------------5--|
Tap to rate this tab
# A B C D E F G H I J K L M N O P Q R S T U V W X Y Z