Song name
# A B C D E F G H I J K L M N O P Q R S T U V W X Y Z

Stoppok - Leise tab

Leise
Words & music: Dziuk/Stoppok - Ed.Grundvermögen
Album: Solo


- Standard Tuning EADGBe / capo 2nd fret -


INTRO:
  D           C       G         C
e-----0h2-----------3---3-2-0-------------|
B---------3-----------3-------3-------3---|
G---2-------2---------------------------0-|
D-0---------------0-----------------0-----|
A-------------0h3---------------0h3-------|
E-----------------------3-----------------|

                                 ____1_____ ______2______
  D           C     G           | C        | C           ||
e-------------------------------|----------|-------------||
B-----------------2--------2----|----------|-------------||
G---2-0-----------0--0-----0--0-|--some----|-------------||
D-0-----4-2-0---0---0----0---0--|pickicking|-------------||
A-------------3-----------------|----------|--3---2------||
E----------------------3--------|----------|-------------||


VERS:
Am  C  G (3x)
Am  C  Fmaj7
G   Am C  F

Am  C  G (3x)
Am  C  Fmaj7
G   Am C  F

e--------------1-0----------|
B-1-0-----0--------3-1-0----|
G-----2-----2------------0--|
D-------3-------------------|

CHORUS:
play the intro
Tap to rate this tab
 
# A B C D E F G H I J K L M N O P Q R S T U V W X Y Z