Song name
# A B C D E F G H I J K L M N O P Q R S T U V W X Y Z

Storm Corrosion - Storm Corrosion tab

-------------------------------------------------------------------------------
                             STORM CORROSION - Storm Corrosion
-------------------------------------------------------------------------------
Tabbed by: Aays
E-mail: blankepitaph@live.ca

My favourite song off the new record. Done entirely by ear, so forgive any 
mistakes, though I feel that this is fairly accurate.
I believe Mikael uses a classical nylon-string for the most part, and pretty much 
the entire thing is fingerpicked except the solo.

Tuning: Standard (EADGBe)

This first half is played at hyperspeed, so get those right hand fingers flexing!

Fade in
e|---------------------------------------------------------------------------|
B|--3-----5-----3-----5------3-----5-----3------5----------------------------|
G|----2-----2-----2-----2------2-----2-----2------2--------------------------|
D|------0-----0-----0-----0------0-----0-----0------0------------------------|
A|---------------------------------------------------------------------------|
E|---------------------------------------------------------------------------|

e|--------------0-----------------------------0------------------------------|
B|--1-----3-------------3------1------3--------------3-----------------------|
G|----0-----0-----0-------0------0------0-------0-------0--------------------|
D|------2-----2-----2-------2------2------2-------2-------2------------------|
A|---------------------------------------------------------------------------|
E|---------------------------------------------------------------------------|

e|--------------0--------------------------------0---------------------------|
B|--1-----3-------------3--------1------3-----------------3------------------|
G|----0-----0------0-------0-------0-------0--------0--------0---------------|
D|---------------------------------------------------------------------------|
A|------3-----3------3-------3-------3--------3-------3---------3------------|
E|---------------------------------------------------------------------------|

e|--------------0--------------------------------0---------------------------|
B|--1-----3-------------3--------1------3-----------------3------------------|
G|----0-----0------0-------0-------0-------0--------0--------0---------------|
D|---------------------------------------------------------------------------|
A|------2-----2------2-------2-------2--------2-------2---------2------------|
E|---------------------------------------------------------------------------|

e|-----------------0-------------------------------0-------------------------|
B|-1------0h1-------------0h1------1------0h1--------------0h1---------------|
G|---------------------------------------------------------------------------|
D|----2--------------2----------------2--------------2-----------------------|
A|------0------0-------0-------0--------0------0--------0-------0------------|
E|---------------------------------------------------------------------------|

e|-----------------0-------------------------------0-------------------------|
B|-1------0h1-------------0h1------1------0h1--------------0h1---------------|
G|---------------------------------------------------------------------------|
D|----2--------------2----------------2--------------2-----------------------|
A|------0------0-------0-------0--------0------0--------0-------0------------|
E|---------------------------------------------------------------------------|


Verses

"Someone is calling ashoooore…"
e|---------------------------------------------------------------------------|
B|--3-----5-----3-----5------3-----5-----3------5----------------------------|
G|----2-----2-----2-----2------2-----2-----2------2--------------------------|
D|------0-----0-----0-----0------0-----0-----0------0------------------------|
A|---------------------------------------------------------------------------|
E|---------------------------------------------------------------------------|
                                                                                

e|--------------0-----------------------------0------------------------------|
B|--1-----3-------------3------1------3--------------3-----------------------|
G|----0-----0-----0-------0------0------0-------0-------0--------------------|
D|------2-----2-----2-------2------2------2-------2-------2------------------|
A|---------------------------------------------------------------------------|
E|---------------------------------------------------------------------------|

"Like horses…"
e|--------------0--------------------------------0---------------------------|
B|--1-----3-------------3--------1------3-----------------3------------------|
G|----0-----0------0-------0-------0-------0--------0--------0---------------|
D|---------------------------------------------------------------------------|
A|------3-----3------3-------3-------3--------3-------3---------3------------|
E|---------------------------------------------------------------------------|

"Raising dogs…"
e|--------------0--------------------------------0---------------------------|
B|--1-----3-------------3--------1------3-----------------3------------------|
G|----0-----0------0-------0-------0-------0--------0--------0---------------|
D|---------------------------------------------------------------------------|
A|------2-----2------2-------2-------2--------2-------2---------2------------|
E|---------------------------------------------------------------------------|

"Sing toooo meeee…"
e|-----------------0-------------------------------0-------------------------|
B|-1------0h1-------------0h1------1------0h1--------------0h1---------------|
G|---------------------------------------------------------------------------|
D|----2--------------2----------------2--------------2-----------------------|
A|------0------0-------0-------0--------0------0--------0-------0------------|
E|---------------------------------------------------------------------------|

e|-----------------0-------------------------------0-------------------------|
B|-1------0h1-------------0h1------1------0h1--------------0h1---------------|
G|---------------------------------------------------------------------------|
D|----2--------------2----------------2--------------2-----------------------|
A|------0------0-------0-------0--------0------0--------0-------0------------|
E|---------------------------------------------------------------------------|
(Repeat the above six bars as necessary)

These are the notes Steven sings in the interlude/chorus thingy between verses
"Dooo doooo doooo dooo doooo dooo dooo doooo doooo..."
e|---------------------------------------------------------------------------|
B|--13--12--10---------------------------------------------------------------|
G|--------------12--9--------------------------------------------------------|
D|---------------------12--10---/12---9--------------------------------------|
A|---------------------------------------------------------------------------|
E|---------------------------------------------------------------------------|

Chorus Riff (repeated through the whole thing)
e|-----------------0-------------------------------0-------------------------|
B|-1------0h1-------------0h1------1------0h1--------------0h1---------------|
G|---------------------------------------------------------------------------|
D|----2--------------2----------------2--------------2-----------------------|
A|------0------0-------0-------0--------0------0--------0-------0------------|
E|---------------------------------------------------------------------------|


Mike's Solo
e|--17--12-----------17--12----------10h12p10--------8/10----10/12-----------|
B|----------15---------------13-12------------13-12-------13-------15--------|
G|---------------------------------------------------------------------------|
D|---------------------------------------------------------------------------|
A|---------------------------------------------------------------------------|
E|---------------------------------------------------------------------------|

                                                Keep picking as you slowly let go of the bend
e|--12/15------15/19------------19b21-19-19-19-19----------------------------|
B|---------17---------17-15-17-----------------------------------------------|
G|---------------------------------------------------------------------------|
D|---------------------------------------------------------------------------|
A|---------------------------------------------------------------------------|
E|---------------------------------------------------------------------------|


e|---------------------------------------------------------------------------|
B|-15b17r15--12p10----------8------------------------------------------------|
G|-----------------12---9\7-----7--9--7-7--7/9--7/9--7/9--7/9----------------|
D|---------------------------------------------------------------------------|
A|---------------------------------------------------------------------------|
E|---------------------------------------------------------------------------|


e|---------------------------------------------------------------------------|
B|--15----15-15--15--15--15-----15\12----------------------------------------|
G|-------------------------------------12------------------------------------|
D|----------------------------------------14-12-10---------------------------|
A|-------------------------------------------------12------------------------|
E|---------------------------------------------------------------------------|


e|---------------------------------------------------------------------------|
B|---------------10-12-12v--12-10--10/12--10/12--10--------------------------|
G|---------------------------------------------------------------------------|
D|---------------------------------------------------------------------------|
A|---------------------------------------------------------------------------|
E|--10--12--13---------------------------------------------------------------|
beginning of this measure is hard to make out... let the last note of the measure ring for a bit

Change around the 5:00 mark
e|-------0-----------0-----------0-----------0-------------------------------|
B|-----0---0-------0---0-------0---0-------0---0-----------------------------|
G|---5-------5---5-------5---0-------0---0-------0---------------------------|
D|-2-----------4-----------5-----------0-------------------------------------|
A|---------------------------------------------------------------------------|
E|---------------------------------------------------------------------------|

e|-----------------0-------------------------0-------------------------------|
B|-----------2-------2---2------------2--------2---0-------------------------|
G|-----0-------0-------0--------0-------0--------0---------------------------|
D|---0---0--------------------0---0------------------------------------------|
A|-4-------4-----4----------4-------4-----4----------------------------------|
E|---------------------------------------------------------------------------|
A louder steel string guitar later joins in.

During the wall of dissonant sound, this joins in around 7:40
e|---------------------------------------------------6-----9-----9-----------|
B|--8------5--------------------0----------------0-------0-----0-----0-------|
G|----0------0-----3------3-------3--------3p2-0-----------------------------|
D|------0------0-----0------0-------0--------------8---8-----8-----8---------|
A|--7------4-----------0------0-------1--0-----------------------------------|
E|-----------------3------3--------------------------------------------------|

"Passed on the second hand slips outwards..." (repeated for each line)
e|---------------------------------------------------6-----9-----9-----------|
B|--8------5--------------------0----------------0-------0-----0-----0-------|
G|----0------0-----3------3-------3--------3p2-0-----------------------------|
D|------0------0-----0------0-------0--------------8---8-----8-----8---------|
A|--7------4-----------0------0-------1--0-----------------------------------|
E|-----------------3------3--------------------------------------------------|

Outro
e|--------------0----------0-----0-----0-------------------------------------|
B|----------------0----------0-----0-----------------------------------------|
G|------5---4h5-----5----------5-----5---------------------------------------|
D|----0----------------------------------------------------------------------|
A|--0------------------0-----------------------------------------------------|
E|---------------------------------------------------------------------------|
Play the first two open notes really fast with your thumb and forefinger.
Repeat till that dissonant keyboard chord takes over.

Well there you have it, one of the most beautiful songs ever written tabbed out in full.
Rate, comment, and most importantly ENJOY! :)



************************************

| /   slide up
| \   slide down
| h   hammer-on
| p   pull-off
| ~   vibrato
| +   harmonic
| x   Mute note
| b   Bend
| pb  Pre-bend
| br  Bend release
| pbr Pre-bend release
| brb Bend release bend

************************************
Tap to rate this tab
 
# A B C D E F G H I J K L M N O P Q R S T U V W X Y Z