Song name
# A B C D E F G H I J K L M N O P Q R S T U V W X Y Z

Storm Corrosion - Happy tab

-------------------------------------------------------------------------------
                             HAPPY - Storm Corrosion
-------------------------------------------------------------------------------
Tabbed by: Aays
E-mail: blankepitaph@live.ca

I've been meaning to get working on this great song for a while.
Messing around with the fingerings, I'm 99% sure that Mikael uses a capo on the 3rd 
fret, so this tab is relative to that.
Again, done entirely by ear, so forgive any mistakes (and preferably point them out in 
the comments).

Tuning: Standard (EADGBe) - capo 3rd fret

e|-----------------0---------------------------------------------------------|
B|----------4----------4---4-------------------------------------------------|
G|-----2------2----------2---------------------------------------------------|
D|-------5------5------------------------------------------------------------|  x4
A|--0------------------------------------------------------------------------|
E|---------------------------------------------------------------------------|

e|-----------4----------0----------------------------------------------------|
B|------5-------5------------5---5-------------------------------------------|
G|--------5--------5-----------5---------------------------------------------|
D|--3------------------------------------------------------------------------|  x2
A|---------------------------------------------------------------------------|
E|---------------------------------------------------------------------------|

e|-------------------1-------------------------------------------------------|
B|-----------0-----------0---0-----------------------------------------------|
G|--------0-----0----------0-------------------------------------------------|
D|------3---------4----------------------------------------------------------|  x2
A|--4------------------------------------------------------------------------|
E|---------------------------------------------------------------------------|

e|------------------0--------------------------------------------------------|
B|-----------3----------3----------------------------------------------------|
G|--------4----4----------4--------------------------------------------------|
D|-----2---------2----------2------------------------------------------------|  x4
A|--0------------------------------------------------------------------------|
E|---------------------------------------------------------------------------|
The above four bars are repeated for pretty much 80 percent of the song.


Acoustic Interlude + Backing Guitar during solo
e|------0-----0-----------------------0--------------------------------------|
B|----------------------------------1---1------------------------------------|
G|----0-----0-----0---------------2-------2----------------------------------|
D|--7-----5------------------------------------------------------------------|
A|--------------7----5---3--2--0------------0--------------------------------|
E|---------------------------------------------------------------------------|

e|--------------------------------0------------------------------------------|
B|------------------------------1---1----------------------------------------|
G|--2-------------------------2-------2--------------------------------------|
D|----0----4-----5p4--0---0h2------------------------------------------------|
A|--3---3----0----------0----------------------------------------------------|
E|---------5---5-5----0---0--------------------------------------------------|
Not at ALL sure about the above two parts. They're stupidly hard to discern properly in 
the mix. Corrections welcome.


Solo near the end (panned left-ish) - NOT tabbed relative to capo
e|---------------------------------------------------------------------------|
B|---------------------------------------------------------------------------|
G|---------------------------/8--7-------------------------------------------|
D|--/10---8-------------------------10--8------8/10--------------------------|
A|-----------10--8--6----------------------10--------------------------------|
E|---------------------8-----------------------------------------------------|

e|---------------------------------------------------------------------------|
B|---------------------------------------------------------------------------|
G|---------------------------10--7---8p7-------------------------------------|
D|--/10---8--------------------------------8---8/10--------------------------|
A|-----------10--8--6--------------------------------------------------------|
E|---------------------8-----------------------------------------------------|

e|---------------------------------------------------------------------------|
B|-------------------------------------------13p11-----11--------------------|
G|-----------------------------------------x--------12-----------------------|
D|-------10--10/12--10--12--12h13--10----x----------------12-12h13p12--------|
A|----10---------------------------------------------------------------------|
E|--8------------------------------------------------------------------------|

e|---------------------------------------------------------------------------|
B|-11p8----------------------------------------------------------------------|
G|------10v------------------------------------------------------------------|
D|----------------(10)--(8)--------------------------------------------------|
A|---------------------------(10)--(8)--(6)----------------------------------|
E|-------------------------------------------(8)-----------------------------|
I -think- Mikael keeps playing those last notes in brackets till fadeout

Please rate, comment, and once again enjoy :)


************************************

| /   slide up
| \   slide down
| h   hammer-on
| p   pull-off
| ~   vibrato
| +   harmonic
| x   Mute note
| b   Bend
| pb  Pre-bend
| br  Bend release
| pbr Pre-bend release
| brb Bend release bend

************************************
Tap to rate this tab
# A B C D E F G H I J K L M N O P Q R S T U V W X Y Z