Guitaretab - guitar tabs
Song name
# A B C D E F G H I J K L M N O P Q R S T U V W X Y Z

Storm - Oppi Fjellet tab

	STORM-OPPI FJELLET (STORM IS THE SIDE PROJECT OS FENRIS (DARK
THRONE, AND SATYR (SATYRICON), WITH THE APEARENCE OF kARI RUSLUTTENSEN)

	A:1                    A:2			A:3
e--------------------| |------------------| |----------------------------
B--------------------| |------------------| |----------------------------
G--------------------| |------------------| |----------------------------
D--------------------| |------------------| |----------7-7-7-5---5-------
A----5-7-8-7-5-7-4-0-| |--4-0-3-3-4-0-3-3-| |----5-7-8---------7---8-7-5-
E--5-----------------| |------------------| |--5-------------------------
[ Tab from: http://www.guitaretab.com/s/storm/43772.html ]
e--------------|
B--------------|
G--------------|
D--------------|
A-7-8-5-7-4-0--|
E--------------|



	B
e------------------------------------------------------------------------||
B------------------------------------------------------------------------||
G------------------------------------------------------------------------||
D--7-7-7-9-9-9-10101014-14-14-12-12-12-9-9-9-1010107-7-7-9-9-9-6-6-6-7---||
A--5-5-5-7-7-7-8-8-8-12-12-12-10-10-10-7-7-7-8-8-8-5-5-5-7-7-7-4-4-4-5-7-||
E----------------------------------------------------------------------5-||


Order: 
two times:::a:1 + a:2 (played twice) play two times bouth lines...
one time::::a:1 + a:3      
one time::::a:1 + a:2 (played forth)        
riff b::::many times.
a:2 (played two times)
repeat.
Related for Oppi Fjellet tab