Song name
# A B C D E F G H I J K L M N O P Q R S T U V W X Y Z

Storm - Utferd tab

STORM: Utferd							
~
Written by Janne Posti
~
Play with fingers (acoustic guitar)
~
The one riff that Satyr plays throughout the outro.
~
|------0-2---2-2p0-0h2p0-0----------0-2---2-2p0-0h2p0-0-----------|
|-2-3------3---------------2---2-3------3---------------2---2---2-|
|----------------------------2----------------------------2---2---|
|--------0----------------------------0---------------------------|
|------------------------0----------------------------0-----------|
|-----------------------------------------------------------------|
(cont.)
|----------------------------|
|-3----------2---2-3---------|
|----4--2-2----2-----4--2-2--|
|-----6---4-----------6---4--|
|-2---4------------2--4------|
|---------2---------------2--|
Tap to rate this tab
# A B C D E F G H I J K L M N O P Q R S T U V W X Y Z