Song name
# A B C D E F G H I J K L M N O P Q R S T U V W X Y Z

Stormlord - And The Wind Shall Scream My Name tab

-----------------------------------------------------------------------------
                                  Stormlord
                      And The Wind Shall Scream My Name
                       Standard Tuning, Tabbed by ear
-----------------------------------------------------------------------------

First, i precise: i am the owner of "And The Wind Shall Scream My Name Intro" tab, so im 
not copying it, just improving it.

Then, another thing that i wrote on the other tab: Stormlord use a very original kind of 
tuning, so this is the best i could obtain with a 6-string Standard-Tuning guitar.

Enjoj


Intro - Riff 0 (2x Acoustic + 2x Distorsion)

|---------------------------------------------------------------------------|
|---------------------------------------------------------------------------|
|---------------------------------------------------------------------------|
|---------------4-6-6-6-6-6--4---4-6--------------4-6-----------------------|
|-4-4-4-4-4-6-7----------------7-----7-7-7-7-7--7---------------------------|
|------------------------------------------------------7-7-7-7-7-7-7-7------|


Riff 1 (Every note is picked multiple times)

|------------------------------------------------------------------|
|------------------------------------------------------------------|
|------------------------------------------------------------------|
|---------------6-8-8-8-------8-8-6-6-6-------6-6------------------|
|-6-6-6-6-6-8-9---------8-8-8-----------6-6-6-----8-8-8------------|
|-------------------------------------------------------9-9-9-9-9--|

|------------------------------------------------------------------|
|------------------------------------------------------------------|
|------------------------------------------------------------------|
|---------------6-8-8-8-------8-8-6-6-6-------6-6--8-8-8---8-------|
|-6-6-6-6-6-8-9---------8-8-8-----------6-6-6------------6---------|
|------------------------------------------------------------------|

Riff 2 x2

|------------------------------------------------------------------|
|------------------------------------------------------------------|
|------------------------------------------------------------------|
|-8--8-8----8--8-8----8--8-8--6-8-8^10---8-6-8--8-8----8--8-8------|
|--------6----------6--------------------------------6---------6---|
|------------------------------------------------------------------|

here go fast

------------------------------|
------------------------------|
------------------------------|
--------------11-10^11^10-8-6-|
-9-8^9^8-6-4------------------|
------------------------------|


Riff 1 (Every note is picked multiple times)

|------------------------------------------------------------------|
|------------------------------------------------------------------|
|------------------------------------------------------------------|
|---------------6-8-8-8-------8-8-6-6-6-------6-6------------------|
|-6-6-6-6-6-8-9---------8-8-8-----------6-6-6-----8-8-8------------|
|-------------------------------------------------------9-9-9-9-9--|

|------------------------------------------------------------------|
|------------------------------------------------------------------|
|------------------------------------------------------------------|
|---------------6-8-8-8-------8-8-6-6-6-------6-6--8-8-8---8-------|
|-6-6-6-6-6-8-9---------8-8-8-----------6-6-6------------6---------|
|------------------------------------------------------------------|


Riff 0 x2

|---------------------------------------------------------------------------|
|---------------------------------------------------------------------------|
|---------------------------------------------------------------------------|
|---------------4-6-6-6-6-6--4---4-6--------------4-6-----------------------|
|-4-4-4-4-4-6-7----------------7-----7-7-7-7-7--7---------------------------|
|------------------------------------------------------7-7-7-7-7-7-7-7------|


Riff 2 x2

|------------------------------------------------------------------|
|------------------------------------------------------------------|
|------------------------------------------------------------------|
|-8--8-8----8--8-8----8--8-8--6-8-8^10---8-6-8--8-8----8--8-8------|
|--------6----------6--------------------------------6---------6---|
|------------------------------------------------------------------|

here go fast

------------------------------|
------------------------------|
------------------------------|
--------------11-10^11^10-8-6-|
-9-8^9^8-6-4------------------|
------------------------------|

Riff 3

Repeat for a while

|---|
|---|
|---|
|---|
|-3-|
|-1-|

Riff 4 (x4 Lead - x2 Rhythm)

|------------------------------------------------------------------------|
|------------------------------------------------------------------------|
|------------------------------------------------------------------------|
|------------------------------------------------------------------------|
|-6--6-6---6--6-6---6--6-6---6--6-6---8--8-8---8--8-8---8--8-8---8--8-8--|
|--------4--------4--------4--------4--------6--------6--------6--------6|

Riff 5 x2 (Only Rhythm) (All Palm Muted)

|----------------------------------------------------|
|----------------------------------------------------|
|----------------------------------------------------|
|----------------------------------------------------|
|-6-6--6--6--6--6--6--6--6-6--8-8--8--8--8--8--8--8--|
|-4-4--4--4--4--4--4--4--4-4--6-6--6--6--6--6--6--6--|

Solo

|-------------------------------------------------------|
|-------------------------------------------------------|
|----8--6---6--8----------------------------------------|
|-6-------9------8--9-11-9---8^9^8\6-8---------6-6^8-6--|
|--------------------------------------9--8--9----------|
|-------------------------------------------------------|

|------------------------------------------------------------------------|
|------------------------------------------------------------------------|
|---8--8--8---8-8-6---6-6-6--8-------------------------------------------|
|-6-----------------9----------8--9-11-9^11^9\8/9--8^9^8\6-8-------------|
|------------------------------------------------------------9--8-9-9^11-|
|------------------------------------------------------------------------|

Riff 6

|-----------------------------------------------------------------|
|-----------------------------------------------------------------|
|-----------------------------------------------------------------|
|--------11-11---11-11---------------------11-11---11-11----------|
|-9--9-9-------9-------9-11-12-11^12^11\9--------9-------9-11--12-|
|-----------------------------------------------------------------|

----------------------------------------------------------------------|
----------------------------------------------------------------------|
----------------------------------------------------------------------|
-14-13^14^13-11-9--11-11------11-11-----11-11-------------------------|
--------------------------9----------9---------9-11-12-11^12^11-9-9-9-|
----------------------------------------------------------------------|

------------------|
------------------|
------------------|
-9-9-9-9-9-9-9-9--|
------------------|
------------------|

Riff 1 (Every note is picked multiple times)

|------------------------------------------------------------------|
|------------------------------------------------------------------|
|------------------------------------------------------------------|
|---------------6-8-8-8-------8-8-6-6-6-------6-6------------------|
|-6-6-6-6-6-8-9---------8-8-8-----------6-6-6-----8-8-8------------|
|-------------------------------------------------------9-9-9-9-9--|

|------------------------------------------------------------------|
|------------------------------------------------------------------|
|------------------------------------------------------------------|
|---------------6-8-8-8-------8-8-6-6-6-------6-6--8-8-8---8-------|
|-6-6-6-6-6-8-9---------8-8-8-----------6-6-6------------6---------|
|------------------------------------------------------------------|

Riff 0 x2 Distorted + x2 Acoustic

|---------------------------------------------------------------------------|
|---------------------------------------------------------------------------|
|---------------------------------------------------------------------------|
|---------------4-6-6-6-6-6--4---4-6--------------4-6-----------------------|
|-4-4-4-4-4-6-7----------------7-----7-7-7-7-7--7---------------------------|
|------------------------------------------------------7-7-7-7-7-7-7-7------|

On the second time of the Acoustic, the Lead does:

|---------------------------------------------------------------------------|
|---------------------------------------------------------------------------|
|---------------------------------------------------------------------------|
|---------------4-6-6-6-6-6--4---4-6--------------4-6--------------6----4---|
|-4-4-4-4-4-6-7----------------7-----7-7-7-7-7--7-------6--6--6-4----7----7-|
|------------------------------------------------------7--7--7--------------|



Finally,
                                  THE END =D

i hope you will find this tab useful, if you notice mistakes, send me a message, i will 
correct it as soon as possible
Tap to rate this tab
# A B C D E F G H I J K L M N O P Q R S T U V W X Y Z