Song name
# A B C D E F G H I J K L M N O P Q R S T U V W X Y Z

Stormtroopers Of Death - Milano Mosh tab

Milano Mosh by SOD

Riff A
|----------------------------------------------------|
|----------------------------------------------------|
|----------------------------------------------------|
|-----6----------------------------------------------|
|-5-4-4----------------------------------------------|
|-3-2------------------------------------------------|

Riff B (Temolo picking)
|----------------------------------------------------|
|----------------------------------------------------|
|----------------------------------------------------|
|----------------------------------------------------|
|----------------------------------------------------|
|-0000000000000000-----------------------------------|
  ................

Riff C
|----------------------------------------------------|
|----------------------------------------------------|
|----------------------------------------------------|
|-5--6--5--4-5-6-------------------------------------|
|-3--4--3--2-3-4-------------------------------------|
|----------------------------------------------------|

Alternate A
|----------------------------------------------------|
|----------------------------------------------------|
|-----6----------------------------------------------|
|-5-4-6----------------------------------------------|
|-5-4------------------------------------------------|
|----------------------------------------------------|

Riff D
|----------------------------------------------------|
|----------------------------------------------------|
|----------------------------------------------------|
|-5-6-5----------------------------------------------|
|-3-4-3-2-2-2----------------------------------------|
|-------0-0-0----------------------------------------|
        . . .

End (Slide)
|----------------------------------------------------|
|----------------------------------------------------|
|----------------------------------------------------|
|-5\-------------------------------------------------|
|-3\-------------------------------------------------|
|----------------------------------------------------|
Tap to rate this tab
# A B C D E F G H I J K L M N O P Q R S T U V W X Y Z