Song name
# A B C D E F G H I J K L M N O P Q R S T U V W X Y Z

Stormwitch - Masque Of The Red Death tab

Riff 1
|---------------------------------------------|
|-------1--0---1----------1-------3--1--0-----|
|----------------2------0-------4-------------|
|----2----------------3-------5---------------|
|--0------------------------------------------|
|---------------------------------------------|

|---------------------------3----3------|-----|
|-------1--0---1----------5------3------|-----|
|----------------2------5--------4------|-----|
|----2---------------------------5------|-----|
|--0-----------------------------5------|-----|
|---------------------------------------|-----|
                                        |______Guitar 2 fill
Guitar 2 fill
|----------------|
|----------------|
|---5--4--2------|
|---5--4--2------|
|---3--2--0------|
|----------------| Repeat riff 1 w/fill 5 times
Tap to rate this tab
 
# A B C D E F G H I J K L M N O P Q R S T U V W X Y Z