Song name
# A B C D E F G H I J K L M N O P Q R S T U V W X Y Z

Stornoway - Here Comes The Blackout tab

-----------------------------------------------------------------------------
			     Here comes the blackout...! - Stornoway
-----------------------------------------------------------------------------

Tabbed by: Vincent
Email: vinsta96@gmail.com

A tab of the excellent song by Stornoway. I am mostly convinced that I have got the tab 
correct but I am a bit unsure about the bridges between sections.
So feedback would be nice on these bits.

Tuning:DGDGBe
capo on 3rd fret

Verse picking section
e--------0--------------------|
B----------0------------------|
G-----7------0----------0-0---|
D---5-5---------7\4-----0-0---|
G---------------5\2-----------|
D---------------------2-------|

Verse Picking to strumming change
e--------0--------------------|
B----------0------------------|
G-----7------0--7\3-----------|
D---5-5---------5\1-----------|
G--------------------4p3p2-2--|
D-----------------------------|

Verse strumming
e-----------------------------|
B-----------------------------|
G-777777-------00-------------|
D-555555-7\4---00-------------|
G--------5\2------------------|
D------------2----------------|

Verse to chorus change
e-------------------------|
B-------------------------|
G-777777------------------|
D-555555---7\4/7\4-0------|
G----------5\2/5\2-0------|
D-------------------------|

Chorus
e-5555-7777-5555-7777---------|
B-5555-7777-5555-7777---------|
G-7777-9999-7777-9999---------|
D-5555-7777-5555-7777---------|
G-5555-7999-5555-7777---------|
D-5555-7777-5555-7777---------|
[The chorus does have some muting of the bar chords as well and it is longer than I have 
shown but is easy to work out]

Chorus outro
e-000-0----------|
B-333-0----------|
G-111-0----------|
D-222-0----------|
G-222-0----------|
D-000-0----------|
[Like the chorus this bit is longer than I have shown]

outro
e-------5-7-7-5----|
B------------------|
G------------------|
D------------------|
G------------------|
D------------------|

This is how the song is made up:

verse picking x3
verse picking to strumming change
verse strumming x3
verse strumming to chorus change

chorus
chorus outro

verse picking x3
verse picking to strumming change
verse strumming x3
verse strumming to chorus change

chorus x2
chorus outro

outro

************************************

| /   slide up
| \   slide down
| h   hammer-on
| p   pull-off
| ~   vibrato
| +   harmonic
| x   Mute note
| b   Bend
| pb  Pre-bend
| br  Bend release
| pbr Pre-bend release
| brb Bend release bend

************************************
Tap to rate this tab
# A B C D E F G H I J K L M N O P Q R S T U V W X Y Z