Song name
# A B C D E F G H I J K L M N O P Q R S T U V W X Y Z

Stornoway - November Song tab

Song: November Song
Band: Stornoway
Album: Songs From Terra Firma
Tabber: frankv
Tuning: C#F#C#F#A#c# (open F#)


This took some work, so I hope you like it. :D

Brian plays without a pick and mostly just strums lightly with his thumb. I've used
YouTube videos of him playing this to figure out the voicings, but used the album version
for the specific patterns. It really doesn't matter if you hit a string more or less as 
long as you get the bass notes right. As I mentioned, he pretty much brushes the strings and
sometimes it's practically inaudible to hear if he hits the top string of not.

If you have any corrections, please do tell me! Either here or via PM.

Verse 1
    F#                 B              F#
c#||---------0h2p0------|-----------------------|
A#||--------------------|----1-------------0-0--|
F#||-------0--------0---|---------0--------0-0--|
C#||----0-------------0-|0h2----2---2p0----0-0--|
F#||-0------------------|---------------0-------|
C#||--------------------|-----------------------|

             D#m7     F#/C#     C#7
|-------------------|--------------0-0----|
|-----0--0-----0--0-|-----0--------1-1-0--|
|-----0--0-----0--0-|-----0--------2-2-0--|
|-----0--0-----0--0-|-----0--------0-0-0--|
|--0-----------4--4-|4/7-----4-----2-2----|
|----------0-2------|------------0--------|

  F#                 B              F#
|---------0h2p0-----|------------------------|
|-------------------|-----1-------------0-0--|
|-------0-------0---|----------0--------0-0--|
|----0------------0-|-0h2----2---2p0----0-0--|
|-0-----------------|----------------0-------|
|-------------------|------------------------|
  D#m7      F#         C#maj13    F#
|-------------------|---------------------|------------------------------|
|----0-0------0--0--|----0--0-0-----0--0--|----0--0------0--0-----0--0-0-|
|----0-0------0--0--|----5--5-0-----0--0--|----0--0------0--0-----0--0-0-|
|----0-0------0--0--|----7--7-0-----0--0--|----0--0------0--0-----0--0-0-|
|----4-4---0--------|-5--7--7----0--------|-0---------0--------0---------|
|-2------0----------|---------------------|------------------------------|

           F#maj7     B          F#
|-------------------|---------------------|
|-------------0-0---|----1----------0--0--|
|-------0-----0-0---|----0----------0--0--|
|----0--0--4--0-0---|-2--2--2p0-----0--0--|
|-0---------------0-|------------0--------|
|-------------------|---------------------|

            D#m7      F#/C#     C#7/G#
|-------------------|--------------0-0------|
|-----0--0-----0--0-|-----0--------1-1------|
|-----0--0-----0--0-|-----0--------2-2------|
|-----0--0-----0--0-|-----0--------0-0------|
|--0-----------4--4-|4/7-----4-----2-2-0h2p-|
|----------0-2------|-----------0-----------|

  F#                    B            D#m7
|---------------------|----------------------|
|----0--0-0----0-0----|-1--1/3--1p0-----0--0-|
|----0--0-0----0-0----|-0--0----0-------0--0-|
|----0--0-0----0-0--0-|-2--2/4--2p0-----0--0-|
|-0---------4---------|-----------------4--4-|
|---------------------|--------------2-------|

  F#/C#              C#maj13
|-----0--0-----0--0-|----0--0-----0--0-|----0--0-----0--0-||
|-----0--0-----0--0-|----0--0-----0--0-|----0--0-----5--5-||
|-----0--0-----0--0-|----5--5-----5--5-|----5--5-----7--7-||
|-----0--0-----0--0-|----7--7-----7--7-|----7--7-----7--7-||
|-/7-----------7----|-7--------7-------|----7--7--7-------||
|-----------0-------|------------------|-0----------------||

Chorus 1

     F#                 C#7
c#||------------------|----0--0-----0-----|
A#||----0--0-----0----|----1--1-----1-----|
F#||----0--0-----0----|----2--2-----2-----|
C#||----0--0-----0----|----0--0-----0-----|
F#||-0--------0-----0-|----2--2-----2--0--|
C#||------------------|-0--------0--------|

  D#m7                  F#
|---------------------|-------------------|
|----0--0-----0-0-----|----0--0-----0--0--|
|----0--0-----0-0-----|----0--0-----0--0--|
|----0--0-----0-0--0--|----0--0-----0--0--|
|----4--4-----4-4-----|-0--------0--------|
|-2--------2----------|-------------------|

  F#                       C#7
|-------2p0--0h2p0-------|----0--0-0-----0-0----|
|----0--0----0-----0--0--|----1--1-1-----1-1----|
|----0--0----0-----0--0--|----2--2-2-----2-2----|
|----0-------0-----0--0--|----0--0-0-----0-0----|
|-0----------------------|----2--2-2-----2-2-/5-|
|------------------------|-0----------0---------|

  Bmaj7    G#m9        C#7
|--------------------|----0--0-----0-0-0--|
|----0--0-----0-0-0--|----0--0-----0-0-0--|
|----0--0-----0-0-0--|----5--5-----5-5-5--|
|----5--5-----5-5-5--|----7--7-----7-7-7--|
|-5--5--5-----5-5-5--|/7-----------7-7-7--|
|---(3)----7---------|----------0---------|

  F#                 D#m
|------------------|---------------------|
|----------0-------|------------0--------|
|-------0-----0----|------0--------0-----|
|----0-----------0-|-0h2-----2-------2p0-|
|-0----------------|-0-------------------|
|------------------|---------------------|
  F#                 D#m
|------------------|---------------------||
|----------0-------|------------0--------||
|-------0-----0----|------0--------0-----||
|----0-----------0-|-0h2-----2-------2p0-||
|-0----------------|-0-------------------||
|------------------|---------------------||

Verse 2
    F#                 B              F#
c#||--------0h2p0------|-----------------------|
A#||------0------------|----1-------------0-0--|
F#||---0--0-------0----|---------0--------0-0--|
C#||------0---------0--|0h2----2---2p0----0-0--|
F#||-0-----------------|---------------0-------|
C#||-------------------|-----------------------|

            D#m7      F#/C#     C#7/G#
|-------------------|--------------0-0------|
|-----0--0-----0--0-|-----0--------1-1------|
|-----0--0-----0--0-|-----0--------2-2------|
|-----0--0-----0--0-|-----0--------0-0------|
|--0-----------4--4-|4/7-----4--2--2-2-0h2p-|
|----------0-2------|-----------------------|

  F#                    B            D#m7
|---------------------|------------------------|
|----0--0-0----0-0----|-1--1/3--1p0-----0--0-0-|
|----0--0-0----0-0----|-0--0----0-------0--0-0-|
|----0--0-0----0-0--0-|-2--2/4--2p0-----0--0-0-|
|-0---------4---------|--------------0---------|
|---------------------|------------------------|

 D#7        F#        C#maj13    F#
|-------------------|---------------------|-----------------------------|
|----0-0------0--0--|----0--0-0-----0--0--|----0--0------0--0-----0--0--|
|----0-0------0--0--|----5--5-0-----0--0--|----0--0------0--0-----0--0--|
|----0-0------0--0--|----7--7-0-----0--0--|----0--0------0--0-----0--0--|
|----4-4---0--------|-5--7--7----0--------|-0---------0--------0--------|
|-2------0----------|---------------------|-----------------------------|

           F#maj7     B          F#
|-------------------|---------------------|
|-------0--------0--|-------1p0---------0-|
|----0--------0-----|----0-----------0----|
|----------4--------|-2-----------0-------|
|-0-----------------|---------------------|
|-------------------|---------------------|

            D#m7      F#/C#     C#7/G#
|-------------------|--------------------|
|-------------------|----------------1p0-|
|--------0--------0-|-------0-----2------|
|-----0--------0----|----0---------------|
|--0----------------|--------------------|
|-----------2-------|-0--------0---------|

  F#       F#7        B         D#m7
|-------------------|-------------------|
|----------------0--|-------1p0---------|
|-------0-----0-----|----0------------0-|
|----0-----3--------|-2------------0----|
|-0-----------------|-------------------|
|-------------------|-----------2-------|

   F#/C#              C#maj13
|-----0--0-----0--0-|----0--0-----0--0-|----0--0-----0--0-||
|-----0--0-----0--0-|----0--0-----0--0-|----0--0-----5--5-||
|-----0--0-----0--0-|----5--5-----5--5-|----5--5-----7--7-||
|-----0--0-----0--0-|----7--7-----7--7-|----7--7-----7--7-||
|-----7--7-----7----|----7--7-----7--7-|----7--7-----7--7-||
|--0--------0-------|-0--------0-------|-0--------0-------||

Chorus 2
     F#                 C#7
c#||------------------|----0--0-----0-----|
A#||----0--0-----0----|----1--1-----1--1--|
F#||----0--0-----0----|----2--2-----2--2--|
C#||----0--0-----0----|----0--0-----0--0--|
F#||-0--------0-----0-|----2--2-----2--2--|
C#||------------------|-0--------0--------|

  D#m7                  F#
|---------------------|-------------------|
|----0--0-----0-0-----|----0--0-----0--0--|
|----0--0-----0-0-----|----0--0-----0--0--|
|----0--0-----0-0--0--|----0--0-----0--0--|
|----4--4-----4-4-----|-0--------0--------|
|-2--------2----------|-------------------|

  F#                       C#7
|----------0h2p0-------|----0--0-----0-0-0-0-|
|----0--0--0-----0--0--|----1--1-----1-1-1-1-|
|----0--0--0-----0--0--|----2--2-----2-2-2-2-|
|----0--0--0-----0--0--|----0--0-----0-0-0-0-|
|-0--------------------|----2--2-----2-2-2-2-|
|----------------------|-0--------0----------|

  F#                    B
|---------------------|---------------------|
|----0--0-0-----------|----5--5--5p3----0---|
|----0--0-0-----------|----0--0--0---0----0-|
|----0--0-0-----------|----5--5--5--------0-|
|-0----------0--2--4--|-5--5----------------|
|---------------------|---------------------|

  F#                      C#7
|----------0h2p0--------|----0--0-----0-1-----|
|----0--0---------0--0--|----1--1-----1-1-0-0-|
|----0--0---------0--0--|----2--2-----2-2-0-0-|
|----0--0---------0--0--|----0--0-----0-0-0-0-|
|-0---------------------|----2--2-----2-2-----|
|-----------------------|-0--------0----------|

  G#m7                           C#7
|----0--0-----0-0-0-0-|-0-----------0-0-0-0--------------------|
|----1--1-----1-1-1-1-|-1--1--1-----1-1-1-1--------------------|
|----0--0-----0-0-0-0-|-0--0--0-----2-2-2-2--------------------|
|----2--2-----2-2-2-2-|-2--4--2-----0-0-0-0--------------------|
|-2--------2----------|-2-----------2-2-2-2--------------------|
|---------------------|----------0-----------------------------|

   F#                       B          D#m7
|-----------0h2p0--------|-0--0--0-------------|
|----0--0-0-------0--0h1-|-1--3--1p0-----0--0--|
|----0--0-0-------0--0---|-0--0--0-------0--0--|
|----0--0-0-------0--0h2-|-2--4--2p0-----0--0--|
|-0----------------------|---------------4--4--|
|------------------------|------------2--------|

  F#                  C#7
|-0----------|--------------|
|-0----------|-8------7-----|
|-0----------|-5------5-----|
|-0----------|-0------7-----|
|-7----------|-7------7-----|
|-0----------|--------------|

   F#                 D#m
|------------------|---------------------|
|----------0-------|------------0--------|
|-------0-----0----|------0--------0-----|
|----0-----------0-|-0h2-----2-------2p0-|
|-0----------------|-0-------------------|
|------------------|---------------------|

   F#                 D#m
|------------------|---------------------|
|----------0-------|------------0--------|
|-------0-----0----|------0--------0-----|
|----0-----------0-|-0h2-----2-------2p0-|
|-0----------------|-0-------------------|
|------------------|---------------------|

   F#                   D#m
|----------0h2p0------|---------------------|
|---------------------|------------0--------|
|-------0--------0----|------0--------0-----|
|----0--------------0-|-0h2-----2-------2p0-|
|-0-------------------|-0-------------------|
|---------------------|---------------------|

   F#                   D#m
|----------0h2p0------|----------------------|
|---------------------|------------0---------|
|-------0--------0----|------0---------------|
|----0--------------0-|-0h2-----2----2/4-2p0-|
|-0-------------------|-0--------------------|
|---------------------|----------------------|

  F#
|----------------||
|----------------||
|----------------||
|----------------||
|-0--------------||
|----------------||
Tap to rate this tab
# A B C D E F G H I J K L M N O P Q R S T U V W X Y Z