Guitaretab - guitar tabs
Song name
# A B C D E F G H I J K L M N O P Q R S T U V W X Y Z

Story Of The Year - Apathy Is A Deathwish tab

Tabbed By: sevenlakes2088


Come in at 11 Seconds.
----------------------------------------------------------------------------|
----------------------------------------------------------------------------|
----------------------------------------------------------------------------|
-----9------------------9-----------9------------------11---------9---------|
-------7-9------------7---9-----------7-9------------7----7-9-------7-9-----|
--11-------9--9/11-11-------9--9/11-------9--9/11-11------------11-------9--|

---------------------------------------------------------|
---------------------------------------------------------|
---------------------------------------------------------|
---------------------9--------11~-11-11-7~---------------|
--------------9-7------7-9----11~-11-11-7~---------------|
-9/11-11-11-9-----11-------9--11~-11-11-7~---------------|
                                  PALM MUTE THE 11's

Throughout Verse.  Something like this.  Its hard to hear.  The 9's and 8's might be 
It still sounds good.
----------------------------------------------------|
----------------------------------------------------|
-----------------9-8-9-8----------------------------|
--11-9-11-9-11-9------------------------------------|
----------------------------------------------------|
----------------------------------------------------|

At 38 Seconds.
[ Tab from: http://www.guitaretab.com/s/story-of-the-year/117090.html ]
--------------------------------------------------------------|
--------------------------------------------------------------|
--------------------------------------------------------------|
--11-11-11/-7-7-7/-11-11-11/-7-7-7-11-11-7-7-------9-9-9------|
--11-11-11/-7-7-7/-11-11-11/-7-7-7-11-11-7-7--x2---9-9-9------|
--11-11-11/-7-7-7/-11-11-11/-7-7-7-11-11-7-7-------9-9-9------|
                                                  9's Come in a 48 Seconds.

Chorus

---------------------------------------------------------------------|
---------------------------------------------------------------------|
---------------------------------------------------------------------|
-----9---------------9-----------9---------------11----------9-------|
-------7-9---------7---9-----------7-9---------7----7-9--------7-9---|
--11-------9--9/11-------9--9/11-------9--9/11------------11-------9-|

----------------------------------------------------------------------------|
----------------------------------------------------------------------------|
----------------------------------------------------------------------------|
---------------------9-------11~-11-11-7~-----------------------------------|
--------------9-7------7-9---11~-11-11-7~-----------------------------------|
-9/11-11-11-9-----11-------9-11~-11-11-7~-----------------------------------|


There is a little more.  Give me a week and I will finish it.
Related for Apathy Is A Deathwish tab
Apathy Is A Deathwish chords by Story Of The Year