Song name
# A B C D E F G H I J K L M N O P Q R S T U V W X Y Z

Story Of The Year - Taste The Poison tab

Song    : Taste The Poison
Band    : Story Of The Year
Album   : In The Wake Of Determination
Tabbed  : SkuBa-GoOcH

Guitar1 : Ryan Philips
Guitar2 : Phillip Sneed

Key     : * - Pinch Harmonic
          b - Bend
          / - Slide
          x - Mute String
          . - Palm Mute
          p - Pull Off
          h - Hammer On
          ~ - Let Ring
          v - Vibrato

Intro

Guitar 1
|---------------------------------------------------|
|---------------------------------------------------|
|--8-8-8-8--11111111-14141414--101010-11p10p8-6--8--|
|--x-x-x-x--x-x-x-x--x-x-x-x---x-x-x----------------|
|--6-6-6-6--9-9-9-9--12121212--8-8-8----------------|
|---------------------------------------------------|

|------------------------------------|
|------------------------------------|
|--8-8-8-8--1111/1313-14141414--10~--|
|--x-x-x-x--x-x--x-x---x-x-x-x--x~---|
|--6-6-6-6--9-9-/1111-12121212--8~---|
|------------------------------------|

Pre-Verse

Both Guitars
|-----------------------------------------------|
|-----------------------------------------------|
|---------------------44444--------66666--------|
|--11111-11111--------44444--------66666--------|
|--11111-11111--[x2]--22222--[x2]--44444--[x2]--|
|--11111-11111----------------------------------|

Verse 1

Guitar 2
|------------|
|------------|
|------------|
|------------|x4
|------------|
|--1-1--1-1--|
   . .  . . 

Both Guitars
|---------------------|
|---------------------|
|--44444--------6666--|
|--44444--------6666--|
|--22222--[x3]--4444--|
|---------------------|

Guitar 2
|------------|
|------------|
|------------|
|------------|x4
|------------|
|--1-1--1-1--|
   . .  . .

Both Guitars
|---------------------|
|---------------------|
|--44444--------6666--|
|--44444--------6666--|
|--22222--[x3]--4444--|
|---------------------|

Pre-Chorus

Both Guitars
|-----------------------|
|-----------------------|
|-----------------------|
|--44-44-44-44-4--4-44--|
|--44-44-44-44-4--4-44--|
|--44-44-44-44-4--4-44--|

Chorus

Both Guitars
|--------------------------------------------------------------|
|--------------------------------------------------------------|
|------------------666666--444444------------------666666--4~--|
|--111111--444444--666666--444444--111111--444444--666666--4~--|
|--111111--444444--444444--222222--111111--444444--444444--2~--|
|--111111--444444------------------111111--444444--------------|

Verse 2

Guitar 1
|-------------------------|
|-------------------------|
|-------------------------|
|-----4h6p2h4--4h6-2------|
|--6-----------------4/6--|
|-------------------------|

|-------------------------|
|-------------------------|
|-------------------------|
|-------------------------|
|--8p6p4-8p6p4-[x2]-8p6~--|
|-------------------------|

Guitar 2
|------------|
|------------|
|------------|
|------------|x4
|------------|
|--1-1--1-1--|
   . .  . . 

Both Guitars
|---------------------|
|---------------------|
|--44444--------6666--|
|--44444--------6666--|
|--22222--[x3]--4444--|
|---------------------|

Pre-Chorus

Both Guitars
|-----------------------|
|-----------------------|
|-----------------------|
|--44-44-44-44-4--4-44--|
|--44-44-44-44-4--4-44--|
|--44-44-44-44-4--4-44--|

Chorus

Both Guitars
|--------------------------------------------------------------|
|--------------------------------------------------------------|
|------------------666666--444444------------------666666--44--|
|--111111--444444--666666--444444--111111--444444--666666--44--|
|--111111--444444--444444--222222--111111--444444--444444--22--|
|--111111--444444------------------111111--444444--------------|

Continued
|-------------------------------------------------|
|-------------------------------------------------|
|------------------666666--444444444444-66666666--|
|--111111--444444--666666--444444444444-66666666--|
|--111111--444444--444444--222222222222-44444444--|
|--111111--444444---------------------------------|

2nd chorus

Both Guitars
|--------------------------------------|
|--------------------------------------|
|--------------------444-------666666--|
|---///////////-111--444--444--666666--|x4
|--/PickSlide/--111--222--444--444444--|
|-///////////---111-------444----------|

Bridge 1

Both Guitars
|-----|----------------|
|-----|----------------|
|-----|----------------|
|--1--|----------------|[Slightly Muted]
|--1--|-/10/8/6/4/2/1--|
|--1--|-/10/8/6/4/2/1--|

Guitar 2
|--9*-----10*-----|
|-----9*------7*--|
|-----------------|
|-----------------|
|-----------------|
|-----------------|

[Feed-Back]

Bridge 2

Guitar 1
|--------------------------------------------------------------|
|--------------------------------------------------------------|
|--------------------------------------------------------------|
|--4h6---8p6p4-8p6p4--9-8-6--88-44--1010-66--10p8p6p4h8p6p4-2--|
|--------------------------------------------------------------|
|--------------------------------------------------------------|

Both Guitars
|----------------------|
|----------------------|
|--44444444--66666666--|
|--44444444--66666666--|
|--22222222--44444444--|
|----------------------|

Pre-Solo

Guitar 2
|-------------------------|
|-------------------------|
|-------444-------666666--|
|--111--444--444--666666--|x2 [Soft Distortion]
|--111--222--444--444444--|
|--111-------444----------|

Solo

Guitar 1
|--131313-131313-131316-13-11-13-16-13-11-13-18-13-11-13-16-13-11-13--|
|---------------------------------------------------------------------|
|---------------------------------------------------------------------|
|---------------------------------------------------------------------|
|---------------------------------------------------------------------|
|---------------------------------------------------------------------|

|--18-13-11-13-16-18~-13-16-18~-13-11-18*b~--|
|--------------------------------------------|
|--------------------------------------------|
|--------------------------------------------|
|--------------------------------------------|
|--------------------------------------------|

|----------------------------------|
|----------------------------------|
|-------------11b*--\\\\\\\\\\\\\--|
|--9h11p9---9-------\\OverDrive\\--|
|---------9---------\\WhammyBar\\--|
|-------------------\\\\\\\\\\\\\--|

|------------------------------------------------|
|------------------------------------------------|
|------------------------------------------------|
|--9h11p9---9h11p9---15h16p15--15h16p15----------|
|---------9------------------16--------16b-[x3]--|
|------------------------------------------------|

Solo Backing

Guitar 2
|-------------------------|
|-------------------------|
|-------444-------666666--|
|--111--444--444--666666--|x4
|--111--222--444--444444--|
|--111-------444----------|

[PickSlide]

Chorus

Both Guitars
|-------------------------|
|-------------------------|
|-------444-------666666--|
|--111--444--444--666666--|x8
|--111--222--444--444444--|
|--111-------444----------|

Post-Chorus

Both Guitars
|----------------------|
|----------------------|
|--44444444--66666666--|
|--44444444--66666666--|
|--22222222--44444444--|
|----------------------|

Outro

Both Guitars
|---------------------------------------------------------|
|---------------------------------------------------------|
|---------------------------------------------------------|
|--11111--11111--11111--11111--11111--11111--11111--1111--|
|--11111--11111--11111--11111--11111--11111--11111--1111--|
|--11111--11111--11111--11111--11111--11111--11111--1111--|
	      					    ....
|--------|
|--/16~--|
|--------|
|--------| [Let Ring]
|--------|
|--------|
Tap to rate this tab
# A B C D E F G H I J K L M N O P Q R S T U V W X Y Z