Song name
# A B C D E F G H I J K L M N O P Q R S T U V W X Y Z

Story Of The Year - Sleep tab

-------------------------------------------/
band:story of the year                    /
song:sleep                               /
album:in the wake of determination      <
tabbed:Pizza Boy (GoOcH*69)              \
tuning:standard                           \
-------------------------------------------\
Legend
pm=palm mute
x=mute string
h=hammer
p=pull off

guitar1

intro/verse
(0:00)-(1:02)
e|-------------------------------------------------|
b|-------------------------------------------------|
g|-------------------------------------------------|
d|---9-9-8-8--------------9-9-8-8------------------|
a|------------9-9-11-11-------------9-9-11-11------|
e|-------------------------------------------------|
 pm  . . . .  . .  .  .   . . . .   . .  .  .
 (short pause)

1st chorus
 part 1(1:07)-(1:23)        part 2(1:24)-(1:29)
e|-------------------------|-------------------|
b|-------------------------|-------------------|
g|-------------------------|-------------------|
d|-------------------------|-------------------|
a|--11-14-13-9--11-14-13-9-|-11-13-11-9--------|
e|-------------------------|-------------------|

intro/verse
(1:30)-(2:01)

2nd chorus
  part 1(2:06)-(2:25)                part 2(2:26)-(2:39)
e|---------------------------|
b|---------------------------|
g|--13-16-15-11-13-16-15-11--|
d|---x--x--x-x---x-x--x--x---|
a|--11-14-13-9--11-14-13-9---|
e|---------------------------|

2nd chorus
  part 2(2:26)-(2:39)
e|-----------------------------------------------------|----|
b|-----------------------------------------------------|----|
g|-1111111111111111-9999-------------------------------|----|
d|-1111111111111111-9999-9999-1111111111111111-99999999|-11-| x2
a|-9-9-9-9-9-9-9-9--7777-9999-1111111111111111-99999999|-11-|
e|-----------------------7777-9-9-9-9-9-9-9-9--77777777|-9--|

intro/verse
(2:40)-(3:02)

 2nd chorus
 (3:03)-(4:00)

end with intro/verse fade out
----------------------------------------------------------------------------
guitar 2
 solo
(1:32)-(1:43)
e|-----------------------------------------------------------------|
b|---------------------------------------9h11h12-11-9-7~-9---------|
g|---6H8~-----------4----------------------------------------7--7--|
d|---------8h9p8-4-------11-9-8-9~---------------------------------|
a|-----------------------------------------------------------------|
e|-----------------------------------------------------------------|

pre-chorus
(3:01)-(3:05)
e|--------------------------------|
b|--------------------------------|
g|-------11111111111111-----------|
d|-------x-x-x-x-x-x-x------------|
a|-------9-9-9-9-9-9-9------------|
e|--------------------------------|

end with intro/verse fade out
----------------------------------------------------------------------------
story Ofthe Year great band keep it up fellas!

thats pretty much it,im not sure about part 2 of the 2nd chorus when i figure it out ill put it in 4 u.
any CONSTRUCTIVE critisism or in-puts
email me @ razorblad3s_cupcakes_69@hotmail.com
Tap to rate this tab
# A B C D E F G H I J K L M N O P Q R S T U V W X Y Z