Song name
# A B C D E F G H I J K L M N O P Q R S T U V W X Y Z

Story Of The Year - Antidote tab

Antidote                                                                Story Of The Year



        E    E   E    E   E    E    Q
D#||---14---17--14---17--14---14---14-----|
A#||---17b------17b------17b--17b--17b----|
F#||*-------------------------------------|
C#||*-------------------------------------|
G#||--------------------------------------|
D#||--------------------------------------|


   |---3--|  |---3--|  |---3--|  |---3--|  |---3--|  |---3--|
   S   S  S  S   S  S  S   S  S  S   S  S  S   S  S  S   S  S  Q
----------------------17p-14--------------17p-14----19p-17-14--------|
--17p-14----17p-14-----------14-17p-14-----------14-----------17b----|
---------16--------16------------------16----------------------------|
---------------------------------------------------------------------|
---------------------------------------------------------------------|
---------------------------------------------------------------------|


   PMPM  PMPM  PMPM  PMPM  PMPM  PMPM  PM PM PM PM PM PM
   |--3--| |--3--|   |--3--| |--3--|   |--3--|  |--3--|
   S S   S S   S S   S S   S S   S S   S  S  S  S  S  S   Q
---------------------------------------------------------------|
---------------------------------------------------------------|
---------------------------------------------------------------|
--------------------------------------------------------/16----|
-----------9-----9--12-9-----9-----------------12--------------|
--12-9--12----12----------12----12-9--14-12-14----14-12--------|


   PM PM PM PM PM PM PM PM PM PM PM PM PM PM PM   PH     PH
   |--3--|  |--3--|  |--3--|  |--3--|  |--3--|
   S  S  S  S  S  S  S  S  S  S  S  S  S  S  S    E      Q    10x
---------------------------------------------------------------||-------||
---------------------------------------------------------------||-------||
-----------------------------------------------<>12b--<>11----*||-------||
-----------------------------11----11-14-11-14----------------*||-------||
-----------12----12-14-12-14----14-----------------------------||-------||
--14-12-14----14-----------------------------------------------||-------||


Duration Legend
---------------
W - whole
H - half
Q - quarter
E - 8th
S - 16th
T - 32nd
X - 64th
. - note dotted
|-n-|  - n-tuplets
Tap to rate this tab
 
# A B C D E F G H I J K L M N O P Q R S T U V W X Y Z