Song name
# A B C D E F G H I J K L M N O P Q R S T U V W X Y Z

Story Of The Year - Take Me Back tab

Half Step Down Dropped to D

-------------------------------------------------------------------------------
			     Take Me Back (Solo) - Story Of The Year
-------------------------------------------------------------------------------
Tabbed by:Venomouskiss320
Email:ShatteredxDR34MS via AIM

Tuning:(high to low) eb Bb Gb Db Ab Db

e|---------------------------------------------------------------------------|
B|---------------------------------------------------------------------------|
G|---------------------------------------------------------------------------|
D|---------------------------------------------------------------------------|
A|--12---14h15----15p14p12--10-12-10--7--10-12-10-12-10----------------------|
E|---------------------------------------------------------------------------|

e|---------------------------------------------------------------------------|
B|---------------------------------------------------------------------------|
G|--------------------------12--14b------------------------------------------|
D|-------------------12-14---------------------------------------------------|
A|--12-14-15---14-15---------------------------------------------------------|
E|---------------------------------------------------------------------------|

e|---------------------------------------------------------------------------|
B|---------------------------------------------------------------------------|
G|----------17------16--------------17------16-------------------------------|
D|--17--14------14------14--17--14------14------17--14-----------------------|
A|---------------------------------------------------------------------------|
E|---------------------------------------------------------------------------|

e|---------------------------------------------------------------------------|
B|---------------------------------------------------------------------------|
G|--10-9---------------------------------------------------------------------|
D|--------10-9-------10--12b-------------------------------------------------|
A|-------------10-12---------------------------------------------------------|
E|---------------------------------------------------------------------------|

e|---------------------------------------------------------------------------|
B|---------------------------------------------------------------------------|
G|--2h4p2p0--4h5p4p0--5h7p5p0--7h9p7p0---12--12------------------------------|
D|---------------------------------------------------------------------------|
A|---------------------------------------------------------------------------|
E|---------------------------------------------------------------------------|

e|---------------------------------------------------------------------------|
B|-------17------------------------------------------------------------------|
G|---16b---------------------------------------------------------------------|
D|---------------------------------------------------------------------------|
A|---------------------------------------------------------------------------|
E|---------------------------------------------------------------------------|

(repeat last part till end of solo)

| /  slide up
| \  slide down
| h  hammer-on
| p  pull-off
| ~  vibrato
| +  harmonic
| x  Mute note
===============================================================================
Tap to rate this tab
# A B C D E F G H I J K L M N O P Q R S T U V W X Y Z