Song name
# A B C D E F G H I J K L M N O P Q R S T U V W X Y Z

Story Of The Year - Dream Is Over tab

Story Of The Year - The Dream Is Over (Constant 2010)

Tabbed by Yury Ustinov


Guitar I

E||--------------------------------------------------|
B||--------12-14-------12-14-------12-14-------12-14-|
G||--11-13-------11-13-------11-13-------11-13-------| x6
D||--------------------------------------------------|
A||--------------------------------------------------|
D||--------------------------------------------------|

Guitar II

You can play this:

E||----------------------------------|--------------------------------|
B||----------------------------------|--------------------------------|
G||--6-6-6-6-6-6-6-6-6-6-6-6-6-6-6-6-|--------11-11-11---------9-9-9--| x4
D||--6-6-6-6-6-6-6-6-6-6-6-6-6-6-6-6-|-2-2-2------------4-4-4---------|
A||--4-4-4-4-4-4-4-4-4-4-4-4-4-4-4-4-|-2-2-2---9--9--9--4-4-4--7-7-7--|
D||----------------------------------|-2-2-2------------4-4-4---------|


Or tune guitar II half step down:

    
D#|----------------------------------|-----------------------------------|
A#|----------------------------------|-----------------------------------|
F#|----------------------------------|--------12-12-12---------10-10-10--| x4
C#|--0-0-0-0-0-0-0-0-0-0-0-0-0-0-0-0-|-3-3-3------------5-5-5------------|
G#|--0-0-0-0-0-0-0-0-0-0-0-0-0-0-0-0-|-3-3-3--10-10-10--5-5-5---8--8--8--|
C#|--0-0-0-0-0-0-0-0-0-0-0-0-0-0-0-0-|-3-3-3------------5-5-5------------|

Theh you play this with palm mute


Chorus:

E||--------------------------|
B||--------------------------|
G||--------------6-----8-----|
D||--7-----9-----6-x8--8-x8--|
A||--7-x8--9-x8--4-----6-----|
D||--7-----9-----------------|

I'll publish more exact tab later.
Tap to rate this tab
# A B C D E F G H I J K L M N O P Q R S T U V W X Y Z