Song name
# A B C D E F G H I J K L M N O P Q R S T U V W X Y Z

Story Of The Year - Stereo tab

Song: Stereo
Artist: Story Of The Year
Album: In The Wake Of Determination
Tuning: Half step down....(Eb, Ab, Db, Gb, Bb, eb)

INTRO - guitar 1

eb|--------------------------------------------------------------------|
Bb|--------------------------------------------------------------------|
Gb|--------------------------------------------------------------------|
Db|-2222222222222200000000000002222222222222224444444444444555555555555|
Ab|--------------------------------------------------------------------|
Eb|--------------------------------------------------------------------|

eb|--------------------------------------------------------------|
Bb|--------------------------------------------------------------|
Gb|--------------------------------------------------------------|
Db|-777777777777779999999999121212121212141414141414141414141414-|
Ab|--------------------------------------------------------------|
Eb|--------------------------------------------------------------|

Guitar 2

eb|---------------------------------------------------------------------|
Bb|---------------------------------------------------------------------|
Gb|---------------------------------------------------------------------|
Db|-22222222222222222222222222222222222222222200000000000000------------|
Ab|---------------------------------------------------------333333333333|
Eb|---------------------------------------------------------------------|

eb|-------------------------------------------------------------|
Bb|-------------------------------------------------------------|
Gb|-------------------------------------------------------------|
Db|---------------------------------------222222222222222-------|
Ab|-55555555555555522222222222555555555555----------------------|
Eb|-------------------------------------------------------------|

VERSE 1 - Both Guitars

eb|-----------------------------------------------------------------------|
Bb|--------------------------------------------------------------------3--|
Gb|----------------------------55555555555555577-------------------------2|
Db|--------2---232----2---232--55555555555555577-2---232-2h5p2h3p2h5p2----|
Ab|--------2---232----2---232--33333333333333355-2---232------------------|
Eb|-00-00--0-0-010----0-0-010--------------------0-0-010------------------|
    .. ..    .          .                          .

eb|--------------------------|
Bb|--------------------------|
Gb|-55555555-------44444-----|
Db|-55555555-55553-44444-----|
Ab|-33333333-55553-22222-----|
Eb|----------33333-----------|

Guitar 1

eb|-------------------------------------|
Bb|-------------------------------------|
Gb|-------------------------------------|
Db|-55555555-44444444-00000000-22222222-|
Ab|-------------------------------------|
Eb|-------------------------------------|

Guitar 2

eb|-------------------------------------|
Bb|-------------------------------------|
Gb|-------------------------------------|
Db|-22222222-00000000-------------------|
Ab|-------------------33333333-55555555-|
Eb|-------------------------------------|

CHORUS - Both Guitars

eb|-------------------------------------------|
Bb|-------------------------------------------|
Gb|-55555-------------44444-55555-77777-------|
Db|-55555-55555-22222-44444-55555-77777-22222-|
Ab|-33333-55555-22222-22222-33333-55555-22222-|
Eb|-------33333-00000-------------------00000-|

eb|---------------------------------------------|
Bb|---------------------------------------------|
Gb|-55555-77777-99999-1111-1313-5555555-7777777-|
Db|-55555-77777-99999-1111-1313-5555555-7777777-|
Ab|-33333-55555-77777-9-9--1111-3333333-5555555-|
Eb|---------------------------------------------|

VERSE 2 - Both Guitars

eb|------------------------------------------|
Bb|------------------------------------------|
Gb|------------------------------------------|
Db|-33--33---2---232---2222--2---232--22222--|
Ab|-33--33---2---232---2222--2---232--22222--|
Eb|-11--11---0-0-010---0000--0-0-010--00000--|
               .       ....    .      .....

eb|------------------------------------------|
Bb|------------------------------------------|
Gb|-55555555555555557799---------------------|
Db|-55555555555555557799-2---232---4--4h5----|
Ab|-33333333333333335577-2---232-22-22-------|
Eb|----------------------0-0-010-------------|
                           .     .. ..

eb|------------------------------------------|
Bb|------------------------------------------|
Gb|---------------------555555555555----4444-|
Db|-2---232---4---4h5p4-55555555555555554444-|
Ab|-2---232-22-222------33333333333355552222-|
Eb|-0-0-010-------------------------3333-----|
      .     .. ...

Guitar 1

eb|--------------------------|
Bb|--------------------------|
Gb|--------------------------|
Db|-555555557777777799999999-|
Ab|--------------------------|
Eb|--------------------------|

Guitar 2

eb|--------------------------|
Bb|--------------------------|
Gb|--------------------------|
Db|-222222220000000----------|
Ab|----------------33333333--|
Eb|--------------------------|


PLAY CHORUS

(After 2nd Chorus) "We've all been bought...and...sold"
                                                 X2
eb|------------------------------------------------|--------|
Bb|------------------------------------------------|--------|
Gb|------------------------------------------------|--------|
Db|-2*---------------------------------------------|--2-5-0-|
Ab|-2*---------------------------------------------|--------|
Eb|-0*----00--00--3-0-1-0--00--3-0-1-0--000--1-3b--|--------|
          ..  ..  . . . .  ..  . . . .  ...


PLAY CHORUS X2

                X8  ..then end with
eb|-----------------|-----------|
Bb|-----------------|-----------|
Gb|-----------------|-----------|
Db|-2---------------|-2---232---|
Ab|-2--2h3p2--------|-2---232---|
Eb|-0--------3p1p0--|-0-0-010---|
                        .

Tap to rate this tab
# A B C D E F G H I J K L M N O P Q R S T U V W X Y Z