Song name
# A B C D E F G H I J K L M N O P Q R S T U V W X Y Z

Story Of The Year - Sidewalks tab

This is my first tab so it might not be perfect but give it a try, I know it's a bit 
to the other tabs but this is the way SOTY play it.
Enjoy!


Intro

            ---------0-0---------|
            ---------------------|
            -----8-------8---8---|  (x 4)
            -------9-------9-----|
            ---------------------|
            ---9-----------------|


 Verse                Note. the second and third verses are played the same
                           +you can figure out the strumming , it's pretty simple.

                   The bridges all crumbled the water soaks into rocks
           --0------------0-------------------0----|
           --0------------0-------------------0----|
           --6------------8-------------------9----|
           --7------------9-------------------11---|
           --7------------9-------------------11---|
           --5------------7-------------------9----|


                  That fell at the bottom of the road
           --0------------0----------0----|
           --0------------0----------0----|
           --6------------8----------9----|
           --7------------9----------11---|
           --7------------9----------11---|
           --5------------7----------9----|


                  The town that we lived in, the memories shaken....
           --0--------------0-----------------0----|
           --0--------------0-----------------0----|
           --6--------------8-----------------9----|
           --7--------------9-----------------11---|
           --7--------------9-----------------11---|
           --5--------------7-----------------9----|


     ... apart, from the weed that grow
           --0---------0-------0----|
           --0---------0-------0----|
           --6---------8-------9----|
           --7---------9-------11---|
           --7---------9-------11---|
           --5---------7-------9----|


Chorus      E      A      E     0
                                           0
                                           8        (x 2)
                                           9
                                           9
                                           7

Verse 2

(Same chords as verse 1)


Bridge

               All of the days that past us by,
           --0------0-------0-----0------|
           --0------0-------0-----0------|
           --9------4-------6-----8------|
           --11-----6-------7-----9------|
           --11-----6-------7-----9------|
           --9------4-------5-----7------|

                All of the sun is gone......away
           --0------0-----0------0------|
           --0------0-----0------0------|
           --9------4-----6------8------|
           --11-----6-----7------9------|
           --11-----6-----7------9------|
           --9------4-----5------7------|

           (Continue through the strings solo)

Back to chorus

Finish with intro riff
Tap to rate this tab
# A B C D E F G H I J K L M N O P Q R S T U V W X Y Z