Song name
# A B C D E F G H I J K L M N O P Q R S T U V W X Y Z

Story Of The Year - To The Burial tab

Song: To The Burial
Artist: Story Of The Year
Album: The Constant

Tuning: Drop Db/C#

INTRO

eb|-----------------------------------------------|
Bb|-----------------------------------------------|
Gb|-----------------------------------------------|
Db|-----------------------------------------------|
Ab|-----------------------------------------------|
Db|-0-17-15-0-12-12-0---0-17-15-0-12-12-0---21~~~-|

eb|-----------------------------------------|
Bb|-----------------------------------------|
Gb|-----------------------------------------|
Db|-----------------------------------------|
Ab|-----------------------------------15b---|
Db|-0-17-15-0-12-0-12----0-17-15-0-12-------|

eb|-----------------------------------------|
Bb|-----------------------------------------|
Gb|-----------------------------------------|
Db|-------------------------------------17b-|
Ab|--------------------------------17-0-----|
Db|-0-17-15-0-12-0-12----0-17-15-0----------|

eb|-----------------------------------------|
Bb|-----------------------------------------|
Gb|-----------------------------------------|
Db|-----------------------------------------|
Ab|-----------------------------------------|
Db|-0-17-15-0-12-0-12----0-17-15-0-12-0-15--|

eb|-----------------------------------------|
Bb|-----------------------------------------|
Gb|-----------------------------------------|
Db|----------------------1515-1010-12-------|
Ab|----------------------1515-1010-12-------|
Db|-0-17-15-0-12-0-12-0--1515-1010-12-------|


VERSE 1

eb|-------------|----------|
Bb|-------------|----------|
Gb|-7-5-7-10-7--|-10-9-5---|
Db|-x-x-x--x-x--|-10-9-5---|
Ab|-5-3-5--8-5--|--8-7-3---|
Db|-------------|----------|

                          X4
eb|------------------------|
Bb|------------------------|
Gb|-7-5-7-10-7-12-10-5-----|
Db|-7-5-7-10-7-12-10-5-----|
Ab|-5-3-5--8-5-10--8-3-----|
Db|------------------------|

              X3
eb|---------------|------------|
Bb|---------------|------------|
Gb|---------------|---12-12-12-|
Db|---------------|---12-12-12-|
Ab|---------------|---10-10-10-|
Db|-0-17-15-0-10b-|------------|


CHORUS - REPEAT INTRO RIFF

VERSE 2 - REPEAT VERSE 1

REPEAT CHORUS


"headstone bleeds admiration..."
eb|------------------------------------------|
Bb|------------------------------------------|
Gb|--777----777------------------------------|
Db|--777----777----888---1010101010101010----|
Ab|--555----555----888---1010101010101010----|
Db|----------------888---1010101010101010----|
                          . . . . . . . .

eb|-------------------------------------------------------------------------|
Bb|-------------------------------------------------------------------------|
Gb|-10-9-5--10-9-3--10-9-5--------------------------------------------------|
Db|-10-9-5--10-9-3--10-9-5--------------------------------------------------|
Ab|--8-7-3---8-7-1---8-7-3----------------------------12---15p13p12-------15|
Db|------------------------12h13p12h15p13p12h13h15p12----12----------13p12--|

                       X2
eb|-----------------------|
Bb|-----------------------|
Gb|--7-5-7-10-7--12-10-5--|
Db|--x-x-x--x-x--12-10-5--|
Ab|--5-3-5--8-5--10--8-3--|
Db|-----------------------|


SOLO

Guitar 1
                       X4
eb|----------------------|
Bb|----------------------|
Gb|--7-5-7-10-7-12-10-5--|
Db|--7-5-7-10-7-12-10-5--|
Ab|--5-3-5--8-5-10--8-3--|
Db|----------------------|

Guitar 2 - (i know this isnt 100% its not easy to work out!)

eb|---------------------------------------------------------------|
Bb|---------------------------------------------------------------|
Gb|-12b-13b-14b-15b--(cant work out the heavy effects bit here..)-|
Db|---------------------------------------------------------------|
Ab|---------------------------------------------------------------|
Db|---------------------------------------------------------------|

eb|----------------------------------------------------|
Bb|----------------------------------------------------|
Gb|-15b-15b---12h15p14p12h15p12h14p12h17p15p12h15h17---|
Db|----------------------------------------------------|
Ab|----------------------------------------------------|
Db|----------------------------------------------------|

eb|------------------------------------------|
Bb|------------------------------18----------|
Gb|-14h15p14h17p14h19p15h17p14h19--17-17/19--|
Db|------------------------------------------|
Ab|------------------------------------------|
Db|------------------------------------------|

                        X3
eb|-----------------------|----------------------------|
Bb|-----------------------|----------------------------|
Gb|-----------------------|----------------------------|
Db|-----------------------|----------------------------|
Ab|-----------------------|----------------------------|
Db|--0-17-15-0-10h12-0----|--0-17-15-0-12-0-12-0---12~~|


REPEAT CHORUS

At the end of the chorus, play;

eb|------------------------------------------------|
Bb|------------------------------------------------|
Gb|--1212-1414-------------------------------------|
Db|--1212-1414-77-88--------------------------0----|
Ab|--1010-1212-77-88--------------------------0----|
Db|------------77-88---0-17-15-14-15-14-12-10-0----|
Tap to rate this tab
 
# A B C D E F G H I J K L M N O P Q R S T U V W X Y Z