Song name
# A B C D E F G H I J K L M N O P Q R S T U V W X Y Z

Story Of The Year - The Children Sing tab

Song: The Children Sing
Artist: Story Of The Year
Album: The Constant

Tuning: Half Step Down --- (Eb,Ab,Db,Gb,Bb,eb)

This is one of my first tabs, and i think its pretty accurate - but not 100%

INTRO

eb|-----------------------------------------------------|
Bb|-----------------------------------------------------|
Gb|-----------------------------------------------------|
Db|-----------------------------------------------------|
Ab|-----------------5--------------5--------------5-----|
Eb|-10-0-0--2-0-3-2---0-0--2-0-3-2---0-0--2-0-3-2---0-0-|

eb|-------------------------------------------------------------|
Bb|-------------------------------------------------------------|
Gb|-------------------------------------------------------------|
Db|-------------------------------------------------------------|
Ab|---------5--------------5--------------5--------------5------|
Eb|-2-0-3-2---0-0--2-0-3-2---0-0--2-0-3-2---0-0--2-0-3-2---0-0--|

eb|--------------------|
Bb|--------------------|
Gb|--------------------|
Db|--------------------|
Ab|---------5555-5555--|
Eb|-2-0-3-2-0000-0000--|
            .... ....

VERSE 1
Guitar 1 - Clean

eb|--------------------------------------------------|
Bb|--------------------------------------------------|
Gb|--7------8------10--------------------------------|
Db|--9------9------9---------------------------------|
Ab|--10-----10-----7---------------------------------|
Eb|--7------7------7---------------------------------|

Guitar 2 - Clean

eb|------------------------7-------------------------|
Bb|--------------------------8-7----12----10h12------|
Gb|------------------------------------11------------|
Db|--------------------------------------------------|
Ab|--------------------------------------------------|
Eb|--------------------------------------------------|

VERSE 2

Guitar 1

eb|--------------------------------------------|
Bb|--------------------------------------------|
Gb|-----9----11----9----11----5----7----5----7-|
Db|-----9----9-----9----9----------------------|
Ab|--------------------------------------------|
Eb|--00---00----00---00----88---88---88---88---|
     ..   ..    ..   ..    ..   ..   ..   ..

eb|---------------------------------------------------------|
Bb|---------------------------------------------------------|
Gb|-----4----0----------------------------------------------|
Db|-----------------12------12------14------14-----5----12--|
Ab|-----------------12------12------14------14-----5----12--|
Eb|--33---33---1010-10-1010-10-1212-12-1212-12-----3----10--|
     ..   ..    . .     . .     . .     . .


CHORUS - REPEAT INTRO RIFF


VERSE - REPEAT VERSE 2


REPEAT CHORUS


BRIDGE
Both Guitars

eb|----------------------------------------------|
Bb|----------------------------------------------|
Gb|-----------77777777---------------------------|
Db|--55555555-77777777-99999999-1010101010101010-|
Ab|--55555555-55555555-99999999-1010101010101010-|
Eb|--33333333----------77777777-8-8-8-8-8-8-8-8--|

eb|----------------------------------------------------------------|
Bb|----------------------------------------------------------------|
Gb|-----------77777777---------------------------12121212-14141414-|
Db|--55555555-77777777-99999999-1010101010101010--x-x-x-x-x-x-x-x--|
Ab|--55555555-55555555-99999999-1010101010101010-10101010-12121212-|
Eb|--33333333----------77777777-8-8-8-8-8-8-8-8--------------------|

                                     X2 ...3rd time
eb|-------------------------------------|----------|
Bb|-------------------------------------|----------|
Gb|-------------------------------------|----------|
Db|-------------------------------------|----------|
Ab|-------------------------------------|----------|
Eb|--0-0-0-10-0-0-----0-0-0-10-0-0------|-10-10-12-|

eb|-------------------------------------|----------|
Bb|-------------------------------------|----------|
Gb|-------------------------------------|----------|
Db|-------------------------------------|----------|
Ab|-------------------------------------|----------|
Eb|--0-0-0-10-0-0-----0-0-0-10-0-0------|-15-15-12-|


"So this is the price to pay..."

eb|-----------------------------|
Bb|-----------------------------|
Gb|-----------------------------|
Db|-----------------------------|
Ab|-----------------------------|
Eb|--000-10-00-33-22-1010-1212--|

eb|---------------------------------|
Bb|---------------------------------|
Gb|---------------------------------|
Db|---------------------------------|
Ab|---------------------------------|
Eb|--000-10-00-1717-1515-1414-1515--|

eb|-------------------------------------|
Bb|-------------------------------------|
Gb|-------------------------------------|
Db|--------------------------------5----|
Ab|--------------------------------5----|
Eb|--000-10-00-33-22-1010-1212-----3----|

LAST CHORUS - Guitar 1 plays riff
Guitar 2 plays...

eb|--------------------------------------------------|
Bb|--------------------------------------------------|
Gb|--99999999-77777777-99999999-12121212-11111111-99-|
Db|--xxxxxxxx-xxxxxxxx-xxxxxxxx--x-x-x-x--x-x-x-x-xx-|
Ab|--77777777-55555555-77777777-10101010--9-9-9-9-77-|
Eb|--------------------------------------------------|


SOLO

Guitar 1
                                                  X2
eb|------------------------------------------------|
Bb|------------------------------------------------|
Gb|-----------77777777-----------------------------|
Db|--55555555-77777777-99999999-1010101010101010---|
Ab|--55555555-55555555-99999999-1010101010101010---|
Eb|--33333333----------77777777--8-8-8-8-8-8-8-8---|

Guitar 2

eb|------------------------------------------|
Bb|------------------------------------------|
Gb|--16b-14/16-16b-14h16/19---16-16-14/16b---|
Db|------------------------------------------|
Ab|------------------------------------------|
Eb|------------------------------------------|

eb|---------------------------------------------------|
Bb|---------------------------------------------------|
Gb|--16b-14/16--16-14h16/19---16-16-14/16h17/19b/21b--|
Db|---------------------------------------------------|
Ab|---------------------------------------------------|
Eb|---------------------------------------------------|


OUTRO RIFF

eb|---------------------------------|
Bb|---------------------------------|
Gb|---------------------------------|
Db|---------------------------------|
Ab|---------------------------------|
Eb|--12p0-10-12-15-14-0-14-12-10----|

on the last time...

eb|---------------------------------|
Bb|---------------------------------|
Gb|---------------------------------|
Db|---------------------------------|
Ab|---------------------------------|
Eb|--12p0-10-12-15-14-0-12p10h12----|
Tap to rate this tab
 
# A B C D E F G H I J K L M N O P Q R S T U V W X Y Z