Song name
# A B C D E F G H I J K L M N O P Q R S T U V W X Y Z

Story Of The Year - Holding On To You tab

Song: Holding On To You
Artist: Story Of The Year
Album: The Constant

Tuning: Eb standard (Eb,Ab,Db,Gb,Bb,eb)

The first verse is just piano and drums..

CHORUS

eb|--------------------------------------------------------------|
Bb|--------------------------------------------------------------|
Gb|-77777777-------------------77777777--------------------------|
Db|-77777777-77777777-99999999-77777777-77777777-22222222222222--|
Ab|-55555555-77777777-99999999-55555555-77777777-22222222222222--|
Eb|----------55555555-77777777----------55555555-00000000000000--|


VERSE 2 - At the end of the verse, the guitar does this:

eb|------------------|
Bb|------------------|
Gb|------------------|
Db|--7--6------------|
Ab|--------7--4------|
Eb|------------------|


REPEAT CHORUS


"Just one more day..."

eb|----------------------------------------|
Bb|----------------------------------------|
Gb|-------------------------777777-9999----|
Db|--7-6---7-6---7/9--------777777-9999----|
Ab|------7-----7-----7/14b--555555-7777----|
Eb|----------------------------------------|


REPEAT CHORUS


finish with:

eb|------------------------------------------|
Bb|------------------------------------------|
Gb|-------------------------7----------------|
Db|--7-6---7-6---7/9--------7-----7-----2----|
Ab|------7-----7-----7/14---5-----7-----2----|
Eb|-------------------------------5-----0----|
Tap to rate this tab
# A B C D E F G H I J K L M N O P Q R S T U V W X Y Z