Song name
# A B C D E F G H I J K L M N O P Q R S T U V W X Y Z

Story Of The Year - Time Goes On tab

Song: Time Goes On
Artist: Story Of The Year
Album: The Constant

Tuning: Drop Db (Db,Ab,Db,Gb,Bb,Eb)

Yet another Story Of The Year tab, I'm pretty sure this one is accurate, if I've missed 
then let me know.

INTRO:

Guitar 1
eb|----------------------|-------------|
Bb|----------------------|-------------|
Gb|----------------------|-------------|
Db|-77773333101010105555-|-3-----------|
Ab|-77773333101010105555-|-3-----------|
Db|-77773333101010105555-|-3-----3/15--|

Guitar 2                       X2
eb|------------------------------|-----------|
Bb|------------------------------|-----------|
Gb|-1414141410101010121212127777-|-----------|
Db|--x-x-x-x-x-x-x-x-x-x-x-xxxxx-|-3---------|
Ab|-12121212-8-8-8-8101010105555-|-3---------|
Db|------------------------------|-3----3/15-|

VERSE

eb|----------------------------------------|
Bb|----------------------------------------|
Gb|----------------------------------------|
Db|-------------------------------555555---|
Ab|-------------------------------555555---|
Db|-77777777777777777777777777777-555555---|
    .............................

eb|--------------------------------------------------------|
Bb|--------------------------------------------------------|
Gb|--------------------------------------------------------|
Db|-------------------------------555555-------------------|
Ab|-------------------------------555555-------------------|
Db|-77777777777777777777777777777-555555333333555555222222-|
    .............................       ..................

CHORUS

eb|-------------------------------------------|
Bb|-------------------------------------------|
Gb|-------------------------------------------|
Db|-7777333310101010555577773333101010102222--|
Ab|-7777333310101010555577773333101010102222--|
Db|-7777333310101010555577773333101010102222--|

eb|----------------------------------------------------|
Bb|----------------------------------------------------|
Gb|----------------------------------------------------|
Db|-7777333310101010555577773333101010105555--3--------|
Ab|-7777333310101010555577773333101010105555--3--------|
Db|-7777333310101010555577773333101010105555--3---3/15-|

REPEAT VERSE
REPEAT CHORUS

RIFF A: (2:09)
                  X12
eb|-------------------|
Bb|-------------------|
Gb|-------------------|
Db|---10--9--7--9--10-|
Ab|-00--00-00-00-00---|
Db|-------------------|
    ..  .. .. .. ..

Guitar 2: (play the first 2 chords whilst the first guitar repeats the riff the first 
times, then play the second bit)

eb|---------|--------------------------|
Bb|---------|--------------------------|
Gb|---------|--------------------------|
Db|-3---5---|-77777-77777-33333-55555--|
Ab|-3---5---|-77777-77777-33333-55555--|
Db|-3---5---|-77777-77777-33333-55555--|

Guitar 1 (Acoustic/clean)
                X2
eb|---------------|
Bb|---------------|
Gb|-5-------2-----|
Db|-5---5---2---3-|
Ab|-3---5---0---3-|
Db|-----5-------3-|
Guitar 2
                                  X2
eb|-----------------------------------|--------------------|
Bb|-----------------------------------|--------------------|
Gb|-----------------------------------|--------------------|
Db|----3/5-3-2-0----------------------|-3333333355555555-7-|
Ab|-3------------5b/7------------5b-3-|-3333333355555555-7-|
Db|-------------------7-7-9-10-3------|-3333333355555555-7-|
                                        ................

REPEAT CHORUS
REPEAT RIFF 1

End with...

eb|---------|
Bb|---------|
Gb|---------|
Db|-5555/7--|
Ab|-5555/7--|
Db|-5555/7--|
Tap to rate this tab
 
# A B C D E F G H I J K L M N O P Q R S T U V W X Y Z