Song name
# A B C D E F G H I J K L M N O P Q R S T U V W X Y Z

Story Of The Year - Until The Day I Die tab

                 STORY OF THE YEAR, UNTIL THE DAY I DIE
                 PAGE AVENUE
                 TAB NOT PERFECT. ANY CORRECTIONS WOULD BE APPRECIATED
                 TAB HAS ALL GUITAR PARTS


INTRO
|---------------------------------------------|
|---------10-------------------10-------------|
|---7---7----7---7-------7---7----7---7-------|
|-9---9--------9-----------9--------9---------|
|---------------------------------------------|
|---------------------------------------------|

|-------------------------------------------------|
|-15------15-----15-------------------------------|
|-14------14-----14-------------------------------|
|-12------11-----12-------------------------------|
|---------12-----12-------------------------------|
|----------------12-------------------------------|

VERSE
GTR 2                                  X3 THEN
|---------------------------------------------| |-------------------------|
|---------10-------------------10-------------| |------------12-----------|
|---7---7----7---7-------7---7----7---7-------| |-----9----9----9----9----|
|-9---9--------9-----------9--------9---------| |-------11--------11------|
|---------------------------------------------| |-------------------------|
|---------------------------------------------| |-------------------------|
GTR 1
|---------------------------------------------|
|---------------------------------------------|
|---------------------77777777----------------|
|-99999999--55555555--77777777--77777777------|
|-99999999--55555555--55555555--77777777------|
|-99999999--55555555------------77777777------|

CHORUS GTR 1
|-------------------------------------------------|
|-------10-10-10---12-12-12-12-12-12-12-12--------|
|--------9--9--9---11-11-11-11-11-11-11-11--------|
|-5-5-5--7--7--7---9--9--9--9--9--9--9--9---------|
|-5-5-5--7--7--7---9--9--9--9--9--9--9--9---------|
|-5-5-5--7--7--7---9--9--9--9--9--9--9--9---------|
 CHORUS GTR 2
|--------------------------------------------------------------------------------|
|--------------------------------------------15-15-15----------------------------|
|-14-14-14---7-7-7---18-18-18---14-14-14-----14-14-14----14/16/12----14/16/14----|
|--------------------------------------------------------------------------------|
|-12-12-12---5-5-5---16-16-16---12-12-12-----12-12-12----12/14/12----12/14/12----|
|--------------------------------------------------------------------------------|

|-----------------------------------------------------------------------------------------------|
|--4/10-10-10-10-10---------10-10-10-10-10--------10-10-10-10-10--------------------------------|
|-------------------7-6--------------------7-6-------------------7-6---6h7p6---------6h7p6------|
|-----------------------7----------------------7---------------------7-------7-7-7---------7-7-7|
|-----------------------------------------------------------------------------------------------|
|-----------------------------------------------------------------------------------------------|

|--------------------------------------------|
|--------------------------------------------|
|---------14-14-14--19-19-19--18-18-18-------|
|--5-5-5-------------------------------------|
|--5-5-5--12-12-12--17-17-17--16-18-18-------|
|--5-5-5-------------------------------------|

VERSE                                                LAST PART, CARRY ON TILL CHORUS AT
GTR 2                                                "JUST LIKE WE ALWAYS DO"
|------------------------------------------------------------------------------------|
|---------10-------------------10--------------------10------------------12----------|
|---7---7----7---7-------7---7----7---7--------7---7----7---7-----9----9----9----9---|
|-9---9--------9-----------9--------9--------9---9--------9---------11--------11-----|
|------------------------------------------------------------------------------------|
|------------------------------------------------------------------------------------|
GTR 1
|---------------------------------------------|
|---------------------------------------------|
|---------------------77777777----------------|
|-99999999--55555555--77777777--77777777------|
|-99999999--55555555--55555555--77777777------|
|-99999999--55555555------------77777777------|

CHORUS GTR 1
|-------------------------------------------------|
|-------10-10-10---12-12-12-12-12-12-12-12--------|
|--------9--9--9---11-11-11-11-11-11-11-11--------|
|-5-5-5--7--7--7---9--9--9--9--9--9--9--9---------|
|-5-5-5--7--7--7---9--9--9--9--9--9--9--9---------|
|-5-5-5--7--7--7---9--9--9--9--9--9--9--9---------|
 CHORUS GTR 2
|--------------------------------------------------------------------------------------------|
|--------------------------------------------15-15-15----------------------------------------|
|-14-14-14---7-7-7---18-18-18---14-14-14-----14-14-14----14/16/12----14/16/14----------------|
|--------------------------------------------------------------------------------------------|
|-12-12-12---5-5-5---16-16-16---12-12-12-----12-12-12----12/14/12----12/14/12----------------|
|--------------------------------------------------------------------------------------------|

|-----------------------------------------------------------------------------------------------|
|--4/10-10-10-10-10---------10-10-10-10-10--------10-10-10-10-10--------------------------------|
|-------------------7-6--------------------7-6-------------------7-6---6h7p6---------6h7p6------|
|-----------------------7----------------------7---------------------7-------7-7-7---------7-7-7|
|-----------------------------------------------------------------------------------------------|
|-----------------------------------------------------------------------------------------------|

|--------------------------------------------|
|--------------------------------------------|
|---------14-14-14--19-19-19--18-18-18-------|
|--5-5-5-------------------------------------|
|--5-5-5--12-12-12--17-17-17--16-18-18-------|
|--5-5-5-------------------------------------|

MIDDLE 8
            GTR 1
|---------------------------------------------|
|---------------------------------------------|
|---------------------------------------------|
|---9-9--7-7--7-5-----------------------------|
|---9-9--7-7--5-5-----------------------------|
|---9-9--7-7--5-5-----------------------------|

       GTR 2
|---------------------------------------------| X2
|---------------------------------------------|
|---------------------------------------------|
|---7/6---12/11--15/14--14-14-14---6h7p6------|
|---------------------------------------6p0---|
|---5/4---10/9---13/12--12-12-12--------------|
|---------------------------------------------|

|---------------------------------------------| X2
|---------10-------------------10-------------|
|---7---7----7---7-------7---7----7---7-------|
|-9---9--------9-----------9--------9---------|
|---------------------------------------------|
|---------------------------------------------|

GTR 1

|--------------------------------------------------------------------------------| X2
|--------------------------------------------------------------------------------|
|-------------7-----7--------7-----7-----------7-----7-----------6h7p6---6-------|
|-----9-9-9-9---9-9----7-7-7---7-7-------5-5-5---5-5-------7-7-7-------7---------|
|--------------------------------------------------------------------------------|
|--------------------------------------------------------------------------------|
      . . . .   . .    . . .   . .       . . .   . .       . . .
|----0--------0-----------------------------------|
|----0--------0--------15-------------------------|
|----5--------7--------14-------------------------|
|----5--------7--------12-------------------------|
|----0--------0--------12-------------------------|
|----X--------X-----------------------------------|
 GTR 2
|-----------------------------------------------------|
|----15---15----15---17-------------------------------|
|----14---14----14---16-------------------------------|
|----12---12----12---14-------------------------------|
|----12---12----12---14-------------------------------|
|----12---12----12---14-------------------------------|
     "WE MADE THE SAME MISTAKES"

|------------------|  |--------------|
|-8--10--12--------|  |--------------|
|-7--9---11--------|  |----7---------|
|-5--7---9---------|  |-----7--------|
|-5--7---9---------|  |--------------|
|-5--7---9---------|  |--------------|
    GTR 1                    GTR 2
CHORUS GTR 1
|-------------------------------------------------|
|-------10-10-10---12-12-12-12-12-12-12-12--------|
|--------9--9--9---11-11-11-11-11-11-11-11--------|
|-5-5-5--7--7--7---9--9--9--9--9--9--9--9---------|
|-5-5-5--7--7--7---9--9--9--9--9--9--9--9---------|
|-5-5-5--7--7--7---9--9--9--9--9--9--9--9---------|
 CHORUS GTR 2
|--------------------------------------------------------------------------------------------|
|--------------------------------------------15-15-15----------------------------------------|
|-14-14-14---7-7-7---18-18-18---14-14-14-----14-14-14----14/16/12----14/16/14----------------|
|--------------------------------------------------------------------------------------------|
|-12-12-12---5-5-5---16-16-16---12-12-12-----12-12-12----12/14/12----12/14/12----------------|
|--------------------------------------------------------------------------------------------|

|-----------------------------------------------------------------------------------------------|
|--4/10-10-10-10-10---------10-10-10-10-10--------10-10-10-10-10--------------------------------|
|-------------------7-6--------------------7-6-------------------7-6---6h7p6---------6h7p6------|
|-----------------------7----------------------7---------------------7-------7-7-7---------7-7-7|
|-----------------------------------------------------------------------------------------------|
|-----------------------------------------------------------------------------------------------|

|----------------------------------------------|
|----------------------------------------15----|
|---------14-14-14--19-19-19--18-18-18---14----|
|--5-5-5---------------------------------12----|
|--5-5-5--12-12-12--17-17-17--16-18-18---12----|
|--5-5-5---------------------------------12----|

|-------------------------------------------------| X2
|-------10-10-10---12-12-12-12-12-12-12-12--------|
|--------9--9--9---11-11-11-11-11-11-11-11--------|
|-5-5-5--7--7--7---9--9--9--9--9--9--9--9---------|
|-5-5-5--7--7--7---9--9--9--9--9--9--9--9---------|
|-5-5-5--7--7--7---9--9--9--9--9--9--9--9---------|


|-------------------------------------------------|
|-15------15-----15-------------------------------|
|-14------14-----14-------------------------------|
|-12------11-----12-------------------------------|
|---------12-----12-------------------------------|
|----------------12-------------------------------|
Tap to rate this tab
# A B C D E F G H I J K L M N O P Q R S T U V W X Y Z