Song name
# A B C D E F G H I J K L M N O P Q R S T U V W X Y Z

Story Of The Year - The Ghost Of You And I tab

			STORY OF THE YEAR
			THE GHOST OF YOU AND I  
			THE CONSTANT
			C# 
         
                        


 INTRO PART 1
 GTR 1
 |---------------------------------|
 |----------------8-7----8---------|
 |-----7-999-7-99--7--77---7-9P7---|
 |---------------------------------|
 |---------------------------------|
 |---------------------------------|
       . ... . ..  .  ..   . 
 GTR 2
 |--------------------------------|
 |----88-77----88-77----8--7------|(COMES IN ON 2nd BAR) 
 |----------99-------77--7---7----| 
 |--------------------------------|
 |--------------------------------|
 |--------------------------------|
      .. .. .. .. .. .. 
 INTRO PART 2
 GTR 2
 |--------------------------------|
 |--------------------------------|
 |--------------------------------|
 |--0-22222222-0-22222222---------| X2
 |--0-22222222-0-22222222---------|
 |--0h22222222 0h22222222---------|
 GTR 1
 |----------------------------------|
 |----------------------------------|
 |----------------------------------|
 |---0h222-0h22-504-00-5-4P0--------| X4
 |----------------------------------|
 |----------------------------------|
 VERSE 
 GTR 1
 |---------------------------------|
 |----------------8-7----8---------|
 |-----7-999-7-99--7--77---7-9P7---|
 |---------------------------------|
 |---------------------------------|
 |---------------------------------|
       . ... . ..  .  ..   . 
 GTR2
 |--------------------------------|
 |----88-77----88-77----8--7------|
 |----------99-------77--7--7-----| 
 |--------------------------------|
 |--------------------------------|
 |--------------------------------|
      .. .. .. .. .. .. .. ..

 |--------------| (END OF 8TH BAR OF VERSE)
 |---88-7-------|
 |--------9-----|
 |--------------|
 |--------------| 
 |--------------|
 				   


 CHORUS
 |------------------------------------------------------------------------|
 |------------------------------------------------------------------------|
 |--------------------------------------5555555555555555-7777777777777777-|
 |-2222222222222222--55555555555555555--5555555555555555-7777777777777777-|
 |-2222222222222222--55555555555555555--3333333333333333-5555555555555555-|
 |-2222222222222222--55555555555555555------------------------------------|

GTR 1
 |---------------------------------|
 |----------------8-7----8---------|
 |-----7-999-7-99--7--77---7-9P7---|
 |---------------------------------|
 |---------------------------------|
 |---------------------------------|
       . ... . ..  .  ..   . 
GTR2
 |--------------------------------|
 |----88-77----88-77----8--7------|
 |----------99-------77--7--7-----| X4 THEN 
 |--------------------------------|
 |--------------------------------|
 |--------------------------------|
      .. .. .. .. .. .. .. ..

 |--------------| 
 |----8P7-------|
 |--------9P7---|
 |--------------|
 |--------------| 
 |--------------|

CHORUS
 |------------------------------------------------------------------------|
 |------------------------------------------------------------------------|
 |--------------------------------------5555555555555555-7777777777777777-|
 |-2222222222222222--55555555555555555--5555555555555555-7777777777777777-|
 |-2222222222222222--55555555555555555--3333333333333333-5555555555555555-|
 |-2222222222222222--55555555555555555------------------------------------|

 |--------------------------|
 |--------------------------|
 |----55555555--77777777----|
 |----55555555--77777777----| X2
 |----33333333--55555555----|
 |--------------------------|

 BRIDGE GTR 1
 |------------------------------------------------------------------------|
 |------------------------------------------------------------------------|
 |------9X12-----9X12------9X12-------11X12-----7X16-9X16-7X16-9X16-------|
 |-2222-----2222------5555-------7777-------------------------------------|
 |-2222-----2222------3333-------5555-------------------------------------|
 |-2222-----2222----------------------------------------------------------|

 GTR 2
 |------------------------------------------------------------------------|
 |----------------------------------------------SAME AS THE CHORUS BUT----|
 |------9X12-----9X12------9X12-------11X12-----PALM MUTED----------------|
 |-2222-----2222------5555-------7777-------------------------------------|
 |-2222-----2222------3333-------5555-------------------------------------|
 |-2222-----2222----------------------------------------------------------|

GTR 2
 |--------------------------------|
 |--------------------------------|
 |--------------------------------|
 |--0-22222222-0-22222222---------| X2
 |--0-22222222-0-22222222---------|
 |--0h22222222 0h22222222---------|

 GTR 1
 |----------------------------------|
 |----------------------------------|
 |----------------------------------|
 |---0h222-0h22-504-00-5-4P0--------| X4
 |----------------------------------|
 |----------------------------------|

 GTR 1
 |------------------000222333555-77-12---------|
 |----------------33---------------------------|
 |-----------22244-----------------------------|
 |--222444555----------------------------------|
 |---------------------------------------------|
 |---------------------------------------------|
 GTR 2
 |-------------------------------------------12--|
 |------------------------7778888-101010-1212----|
 |-------------------77999-----------------------|
 |-------------777999----------------------------|
 |-777999101010----------------------------------|
 |-----------------------------------------------|

 |-------------------|
 |-------------------|
 |--------5--777777--|
 |--2--5--5--777777--|
 |--2--5--3--555555--|
 |--2--5-------------|
              .....             
 CHORUS
 |------------------------------------------------------------------------|
 |------------------------------------------------------------------------|
 |--------------------------------------5555555555555555-7777777777777777-|
 |-2222222222222222--55555555555555555--5555555555555555-7777777777777777-|
 |-2222222222222222--55555555555555555--3333333333333333-5555555555555555-|
 |-2222222222222222--55555555555555555------------------------------------|

 |--------------------------|
 |--------------------------|
 |----55555555--77777777----|
 |----55555555--77777777----| 
 |----33333333--55555555----|
 |--------------------------|
 GTR 2
 |--------------------------------|
 |--------------------------------|
 |--------------------------------|
 |--0-22222222-0-22222222---------| 
 |--0-22222222-0-22222222---------|
 |--0h22222222 0h22222222---------|
 GTR 1
 |----------------------------------|
 |----------------------------------|
 |----------------------------------|
 |---0h222-0h22-504-00-5-4P0--------| 
 |----------------------------------|
 |----------------------------------|
     
 OUTRO
 |-------------------------------------|
 |-------------------------------------|(LISTEN FOR PATTERN)
 |-----------7hp-----------------------|
 |--2222--7h9-----22222------0h2h4p0---| 
 |--2222----------22222----------------|
 |--2222----------22222----------------|

 
Tap to rate this tab
 
# A B C D E F G H I J K L M N O P Q R S T U V W X Y Z