Song name
# A B C D E F G H I J K L M N O P Q R S T U V W X Y Z

Story Of The Year - Im Alive tab

			STORY OF THE YEAR
			I'M ALIVE 
			THE CONSTANT
			Eb          
                        


 INTRO/VERSE
 |---------0--------------0-------------------------|
 |-------------0------------0-----------------------|
 |-------8---8----------8-----8---------------------|
 |----11-------------11-----------------------------|
 |--0-----------------------------------------------|
 |-----------------9--------------------------------|

 PRE CHORUS 
 |----------------------------------------------------------------|
 |----------------------------------------------------------------|
 |----------------------------6-xxx-6-xxx-6-xxx-6-xxx-------------|
 |--7-xxx-7-xxx--7-xxx-7-xxx--6-xxx-6-xxx-6-xxx-6-xxx-------------| X2
 |--7-xxx-7-xxx--7-xxx-7-xxx--4-xxx-4-xxx-4-xxx-4-xxx-------------|
 |--5-xxx-5-xxx--5-xxx-5-xxx--------------------------------------|

 |----------------------------------|
 |----------------------------------|
 |----4-4-4-4-4-4-4-4-4--2-2-2------|
 |----4-4-4-4-4-4-4-4-4--2-2-2------| X4
 |----2-2-2-2-2-2-2-2-2--0-0-0------|
 |----------------------------------|

 CHORUS
 |------------------------------------------------------------------------|
 |------------------------------------------------------------------------|
 |------------------------------------------------------------------------|
 |--666666--777777--222222222222--666666--777777--222222222222------------|
 |--666666--777777--222222222222--666666--777777--222222222222------------|
 |--444444--555555--000000000000--444444--555555--000000000000------------|

 |------------------------------------------------------------------------|
 |------------------------------------------------------------------------|
 |--------------------------444444----------------------------------------|
 |--666666--777777--222222--444444--666666--777777--222222222222----------|
 |--666666--777777--222222--222222--666666--777777--222222222222----------|
 |--444444--555555--000000----------444444--555555--000000000000----------|

 VERSE
 |---------0--------------0-------------------------|
 |-------------0------------0-----------------------|
 |-------8---8----------8-----8---------------------|
 |----11-------------11-----------------------------|
 |--0-----------------------------------------------|
 |-----------------9--------------------------------|

 PRE CHORUS 
 |----------------------------------------------------------------|
 |----------------------------------------------------------------|
 |----------------------------6-xxx-6-xxx-6-xxx-6-xxx-------------|
 |--7-xxx-7-xxx--7-xxx-7-xxx--6-xxx-6-xxx-6-xxx-6-xxx-------------| X2
 |--7-xxx-7-xxx--7-xxx-7-xxx--4-xxx-4-xxx-4-xxx-4-xxx-------------|
 |--5-xxx-5-xxx--5-xxx-5-xxx--------------------------------------|

 |----------------------------------|
 |----------------------------------|
 |----4-4-4-4-4-4-4-4-4--2-2-2------|
 |----4-4-4-4-4-4-4-4-4--2-2-2------| X4
 |----2-2-2-2-2-2-2-2-2--0-0-0------|
 |----------------------------------|

 CHORUS
 |------------------------------------------------------------------------|
 |------------------------------------------------------------------------|
 |------------------------------------------------------------------------|
 |--666666--777777--222222222222--666666--777777--222222222222------------|
 |--666666--777777--222222222222--666666--777777--222222222222------------|
 |--444444--555555--000000000000--444444--555555--000000000000------------|

 |------------------------------------------------------------------------|
 |------------------------------------------------------------------------|
 |--------------------------444444----------------------------------------|
 |--666666--777777--222222--444444--666666--777777--222222222222----------|
 |--666666--777777--222222--222222--666666--777777--222222222222----------|
 |--444444--555555--000000----------444444--555555--000000000000----------|

 BRIDGE PART 1
     
 |------------------------------------------------------------------------|
 |------------------------------------------------------------------------|
 |--6-xxxx-6-xxxx-6-xxxx-6-xxxx-6-xxxx-6-xxxx-6-xxxx-6-xxxx-444444444444--|
 |--6-xxxx-6-xxxx-6-xxxx-6-xxxx-6-xxxx-6-xxxx-6-xxxx-6-xxxx-444444444444--|
 |--4-xxxx-4-xxxx-4-xxxx-4-xxxx-4-xxxx-4-xxxx-4-xxxx-4-xxxx-222222222222--|
 |------------------------------------------------------------------------|

 |--------------------------------------------------------------------|
 |--------------------------------------------------------------------|
 |--222222222222--444444444444--222222--------------------------------|
 |--222222222222--444444444444--222222--------------------------------|
 |--000000000000--222222222222--000000--------------------------------|
 |--------------------------------------------------------------------|

 BRIDGE PART 2
     
 |-----------------------0--------------------------|
 |--------0----------------0------------------------|
 |---------------------------0----------------------|
 |------2---2----------4--------------7-------------|
 |----2-------2------4-------------7--7-------------|
 |--0--------------2--------------5---5-------------|

 |----------------------------------|
 |----------------------------------|
 |----4-4-4-4-4-4-4-4-4--2-2-2------|
 |----4-4-4-4-4-4-4-4-4--2-2-2------| X4
 |----2-2-2-2-2-2-2-2-2--0-0-0------|
 |----------------------------------|

 CHORUS
 |------------------------------------------------------------------------|
 |------------------------------------------------------------------------|
 |------------------------------------------------------------------------|
 |--666666--777777--222222222222--666666--777777--222222222222------------|
 |--666666--777777--222222222222--666666--777777--222222222222------------|
 |--444444--555555--000000000000--444444--555555--000000000000------------|

 |--------------------------------------------------------------|
 |--------------------------------------------------------------|
 |---------------------------444444-----------------------------|
 |--6--------777777--222222--444444--666666--777777--2----------|
 |--6--------777777--222222--222222--666666--777777--2----------|
 |--4-BREAK--555555--000000----------444444--555555--0----------|
 
Tap to rate this tab
 
# A B C D E F G H I J K L M N O P Q R S T U V W X Y Z