Song name
# A B C D E F G H I J K L M N O P Q R S T U V W X Y Z

Story Of The Year - Ten Years Down tab

			STORY OF THE YEAR
			TEN YEARS DOWN
			THE CONSTANT
			C#          
                        


 INTRO
 |----------------------------------|
 |-------3-----3-----3-----3--------|
 |---------0-----0-----0-----0------|
 |-----------0-----0-----0-----0----|
 |----------------------------------|
 |---0-2----------------------------|

 VERSE GTR 1
 |----------------------------|
 |----------------------------|
 |--------------5--5-7--------|
 |--0-2--0-2--0-5--5-7--------|
 |--0-2--0-2--0-3--3-5--------|
 |--0-2--0-2--0---------------|
 GTR 2
 |-------------------|
 |-------------------|
 |----7----7---------|
 |------54---54------| 
 |-------------------|
 |-------------------|

 PRE CHORUS GTR2
 |----------------------------------------------------------------------|
 |----888888--10101010--77777--888888--12121212--10101010--15151515-----|(10'S,11'S,12'S
 |----999999--11111111--77777--999999---9-9-9-9--11111111--11111111-----| 15'S)
 |----------------------------------------------------------------------|
 |----------------------------------------------------------------------|
 |----------------------------------------------------------------------|
 GTR 1
 |----------------------|
 |----------------------|
 |---55555--77777-------|
 |---55555--77777-------|(X2)
 |---33333--55555-------|
 |----------------------|
     .....  .....
  CHORUS BOTH GTR'S
 |------------------------------------------|
 |------------------------------------------|
 |------555-----------------555--777--------|
 |-222--555--555--000--222--555--777--------| 
 |-222--333--555--000--222--333--555--------|
 |-222-------555--000--222------------------|

 |-------------------|
 |-------------------|
 |----7----7---------|
 |------54---54------| 
 |-------------------|
 |-------------------|

 |------------------------------------------------------|
 |------------------------------------------------------|
 |--------------------5555--5-7777----------------------|
 |--0-2222--0-2222--0-5555--5-7777----------------------|
 |--0-2222--0-2222--0-3333--3-5555----------------------|
 |--0-2222--0-2222--0-----------------------------------|
       ...     ...     ...     ...
 |----------------------------------------------------------------------|
 |----888888--10101010--77777--888888--12121212--10101010--15151515-----|
 |----999999--11111111--77777--999999---9-9-9-9--11111111--11111111-----| 
 |----------------------------------------------------------------------|
 |----------------------------------------------------------------------|
 |----------------------------------------------------------------------|
 GTR 1
 |----------------------|
 |----------------------|
 |---55555--77777-------|
 |---55555--77777-------|(X2)
 |---33333--55555-------|
 |----------------------|

 |------------------------------------------|
 |------------------------------------------|
 |------555-----------------555--777--------|
 |-222--555--555--000--222--555--777--------| 
 |-222--333--555--000--222--333--555--------|
 |-222-------555--000--222------------------| 

 BOTH GTR'S
 |----------------------------------|
 |----------------------------------|
 |----------------------------------|
 |--22--5p4p0-0-22------------------| 
 |--22--------0-22------------------|
 |--22--------0-22------------------|

 BRIDGE 
 |-------------------|
 |-------------------|
 |---------7----7----|
 |------54---54------| 
 |-------------------|
 |-------------------|

 |----------------------|
 |----------------------|
 |---55555--77777-------|
 |---55555--77777-------|(X2)
 |---33333--55555-------|
 |----------------------|
     .....  .....

 |-------------------|
 |-------------------|
 |----7----7---------|
 |------54---54------| 
 |-------------------|
 |-------------------|

 |---------------------------------|
 |---------------------------------|
 |---------------------------------|
 |--22---------22------------------| 
 |--22---------22------------------|
 |--22---------22------------------|

 |------------------------------------------|
 |------------------------------------------|
 |------555-----------------555--777--------|
 |-222--555--555--000--222--555--777--------| 
 |-222--333--555--000--222--333--555--------|
 |-222-------555--000--222------------------|


 |----------------------------------|
 |----------------------------------|
 |----------------------------------|
 |--22--5p4p0-0-22------------------| 
 |--22--------0-22------------------|
 |--22--------0-22------------------|
Tap to rate this tab
 
# A B C D E F G H I J K L M N O P Q R S T U V W X Y Z