Story Of The Year - The Ghost Of You And I tab

Song: The Ghost Of You And I
Album: The Constant

Tuning: Half step down (Eb,Ab,Db,Gb,Bb,eb)

INTRO - (0:00 - 0:09)

eb|---------------------------------------|
Bb|---------------8---7-----8---7---------|
Gb|-9-9-9-9-7-9-9---9---9-9---9---9-------|    X4
Db|---------------------------------------|
Ab|---------------------------------------|
Db|---------------------------------------|

INTRO - (0:09 - 0:29)

eb|-------------------------------------------------|
Bb|-------------------------------------------------|
Gb|-------------------------------------------------|
Db|-------------------------------------------------|    X8
Ab|--------------------10----9-------10----9--------|
Db|-0-0-12-12-10-12-12----12---12-12----12---12-----|



VERSE: - Repeat first part of intro


CHORUS:

eb|--------------------------------|
Bb|--------------------------------|
Gb|---------------555555-777777----|
Db|-222222-555555-555555-777777----|
Ab|-222222-555555-333333-555555----|
Db|-000000-333333------------------|


REPEAT VERSE


CHORUS:

eb|-------------------------------------------------|
Bb|-------------------------------------------------|
Gb|---------------555555-777777---555555-777777-----|
Db|-222222-555555-555555-777777---555555-777777-----|
Ab|-222222-555555-333333-555555---333333-555555-----|
Db|-000000-333333-----------------------------------|


(2:08 - 2:30) 
Guitar 1

eb|----------------------|----------------------------------|
Bb|----------------------|----------------------------------|
Gb|-----------5555-7777--|-----------5555-7777-4444--4------|
Db|-2222-2222-5555-7777--|-2222-2222-5555-7777-4444--4------|
Ab|-2222-2222-3333-5555--|-2222-2222-3333-5555-2222--2------|
Db|-0000-0000------------|-0000-3333------------------------|
    .... .... .... ....


Guitar 2         (these are 11's btw)
eb|----------------------|----------------------------------|
Bb|----------------------|----------------------------------|
Gb|-9999999999999-111111-|-9999999999999999999-11111111-----|
Db|----------------------|----------------------------------|
Ab|----------------------|----------------------------------|
Db|----------------------|----------------------------------|
    ............. . . .    ................... . . . .


REPEAT INTRO RIFF

REPEAT CHORUS


(3:32)
eb|---------------------------------------------|
Bb|---------------------------------------------|
Gb|---------------------------------------------|
Db|---------------------------------------------|   X3
Ab|-----------------10-------9----10----9-------|
Db|-0-0-12-12-10-12----12-12---12----12---12----|


eb|------------------------------------------------------------------------|
Bb|------------------------------------------------------------------------|
Gb|------------------------------------------------------------------------|
Db|----------------12h14--2222-------------2222------------22--------12h14-|
Ab|----------12h14--------2222--------9----2222-------9----22--12h14-------|
Db|-00000000--------------0000--10h12---10-0000-10h12---10-00--------------|
    ........              ....             ....            ..

eb|---------------------------------|
Bb|---------------------------------|
Gb|---------------------------------|
Db|-2222------------22--------12h14-|
Ab|-2222-------9----22--12h14-------|
Eb|-0000-10h12---10-00--------------|


End (any mistakes please let me know)
Tap to rate this tab
 
# A B C D E F G H I J K L M N O P Q R S T U V W X Y Z