Guitaretab - guitar tabs
Song name
# A B C D E F G H I J K L M N O P Q R S T U V W X Y Z

Story Of The Year - Apathy Is A Deathwish tab

-------------------------------------------------------------------------------
			     Apathy Is A Deathwish - Story of the Year

-------------------------------------------------------------------------------
Tabbed by: Kai Jones


Tuning:C#,G#,C#,F#,A#,D#

I decided to go ahead and tab this song since no one here has done it completely. This
is how I play it. This is my first tab posting, so I hope you like it! If there are any
discrepancies in the tab message me the part and I'll try to fix it.

[Intro]

D#|-------------------------------------------------------------------------|
A#|-------------------------------------------------------------------------|
F#|-------------------------------------------------------------------------|
C#|----10----------------------------------10-------------------------------|
G#|--------8---10--------------------8------------8-------------------------|
C#|-0----------------10---12~---0-----------------------10------------------|

D#|-------------------------------------------------------------------------|
A#|-------------------------------------------------------------------------|
F#|-------------------------------------------------------------------------|
C#|----10---------------------------------------5---------------------------|
G#|--------8---10--------------------0--5--8--------------------------------|
C#|-0----------------10---12~---0-------------------------------------------|



D#|-------------------------------------------------------------------------|
A#|-------------------------------------------------------------------------|
F#|-------------------------------------------------------------------------|
C#|---10------------------------------5--3----------------------------------|
G#|-------8--10---------------5--3------------------------------------------|
C#|-0------------10--12~--0-------------------------------------------------|


D#|-------------------------------------------------------------------------|
A#|-------------------------------------------------------------------------|
F#|-------------------------------------------------------------------------|
C#|---10-----------------------10-------------------------------------------|
G#|-------8--10-----------0-0--8--------------------------------------------|
C#|-0------------10--12~--0-0--8--------------------------------------------|

[Verse]
Not too sure about this part, but it sounds okay. Palm mute the notes as much as you can
without drowning it out completely. Play 8X


D#|-------------------------------------------------------------------------|
A#|-------------------------------------------------------------------------|
F#|-10--9--10--9--7------7--------------------------------------------------|
C#|------------------10-----10----------------------------------------------|
G#|-------------------------------------------------------------------------|
C#|-------------------------------------------------------------------------|

[Pre-Chorus]


D#|------------------------------------------------------------------------------------------|
A#|--------10-10-10-------------------13-13-13---------------10-10-10------------------------|
F#|--------10-10-10-------------------12-12-12---------------10-10-10------------------------|
C#|-0-0-0--8--8--8--(Play 3x)--0-0-0--10-10-10--------0-0-0--8--8--8-(Play 3x)------0-0-0----|
G#|-0-0-0--8--8--8-------------0-0-0--10-10-10--------0-0-0--8--8--8------------------0-0-0--|
C#|-0-0-0--8--8--8-------------0-0-0--10-10-10--------0-0-0--8--8--8------------------0-0-0--|



D#|-----------------|
A#|-13--------------|
F#|-12--------------|
C#|-10--(Strum 9x)--|
G#|-10--------------|
C#|-10--------------|

[Chorus]

The chorus is just the intro riff. Play once.

[Verse 2]
One guitar plays what was in verse 1, with the 7-10 part going a little longer at the
end, the other does this, all palm-muted, play 4 times:


D#|-----------------------------------------------------------------------------------|
A#|-----------------------------------------------------------------------------------|
F#|-----------------------------------------------------------------------------------|
C#|-0-0-0----0----0-0-----------------------------------------------------------------|
G#|-0-0-0----0----0-0-----------------------------------------------------------------|
C#|-0-0-0----0----0-0-----------------------------------------------------------------|

[Pre-chorus]

[Chorus]
[ Tab from: http://www.guitaretab.com/s/story-of-the-year/280107.html ]
The guitars then play this, palm mute the open notes:

D#|------------------------------------------------------------------------------------|
A#|------------------------------------------------------------------------------------|
F#|------------------------------------------------------------------------------------|
C#|-0-0-0-3-0-0-0----------------------------------------------------------------------|
G#|-0-0-0-3-0-0-0----------------------------------------------------------------------|
C#|-0-0-0-3-0-0-0----------------------------------------------------------------------|

..And loop that back around to the Chorus, which plays that ^^^ again. Now to the 
Bridge! Strum the chords.


D#|----------------------------------------------------------------------------|
A#|----------------------------------------------------------------------------|
F#|----------------------------------------------------------------------------|
C#|-8------10-------8--------10--------12-------15--------8------10------------|
G#|-8(14x)-10(14x)--8(14x)---10(14X)---12(14x)--15(14x)---8(14x)-10(12x)-------|
C#|-8------10-------8--------10--------12-------15--------8------10-----/12~~--|

[Bridge 2]

D#|---------------------------------------------------|
A#|---------------------------------------------------|
F#|---------------------------------------------------|
C#|----------------------------------------------12\--|
G#|-0--------3--0--0--10--0--0-------------------12\--|
C#|-0--0--0--3--0--0--10--0--0--3/10--(play 4x)--12\--|

[Play the first half of the intro, then play the intro again, this time 3/4 of the way
through the measure. Then there's this little deviation]



D#|-----------------------------------------------------------------------|
A#|-----------------------------------------------------------------------|
F#|-----------------------------------------------------------------------|
C#|----------5-3----------------------------------------------------------|
G#|-0-3h5p3---------------------------------------------------------------|
C#|---------------5-3-----------------------------------------------------|

[Outro]

D#|-------------------------------------------------------------------------------------|
A#|-------------------------------------------------------------------------------------|
F#|-------------------------------------------------------------------------------------|
C#|----10----------------------------------10-------------------------------------------|
G#|--------8---10--------------------8------------8-------------------------------------|
C#|-0----------------10---12~---0-----------------------10------------------------------|

D#|-----------------------------------------------------------------------------------|
A#|-----------------------------------------------------------------------------------|
F#|-----------------------------------------------------------------------------------|
C#|----10---------------------------------------5-------------------------------------|
G#|--------8---10--------------------0--5--8------------------------------------------|
C#|-0----------------10---12~---0-----------------------------------------------------|



D#|-----------------------------------------------------------------------------------|
A#|-----------------------------------------------------------------------------------|
F#|-----------------------------------------------------------------------------------|
C#|---10------------------------------5--3--------------------------------------------|
G#|-------8--10---------------5--3----------------------------------------------------|
C#|-0------------10--12~--0-----------------------------------------------------------|


D#|------------------------------------------------------------------------------|
A#|------------------------------------------------------------------------------|
F#|------------------------------------------------------------------------------|
C#|---10-----------------------10------------------------------------------------|
G#|-------8--10-----------0-0--8----0-0-0----------------------------------------|
C#|-0------------10--12~--0-0--8----0-0-0----------------------------------------|

END
************************************
| /   slide up
| \   slide down
| h   hammer-on
| p   pull-off
| ~   vibrato
| +   harmonic
| x   Mute note
| b   Bend
| pb  Pre-bend
| br  Bend release
| pbr Pre-bend release
| brb Bend release bend

************************************
Related for Apathy Is A Deathwish tab
Apathy Is A Deathwish chords by Story Of The Year