Song name
# A B C D E F G H I J K L M N O P Q R S T U V W X Y Z

Story Of The Year - Sidewalks tab

bber: TabCorrector101
Song: Sidewalks (aol sessions)
Band: Story of the Year

my email is blforsythe@zoominternet.net... comment me and tell me if you figure out 
something wrong or what not.


Guitar 1 -Phil
-----------------------
Half Step Down

Intro
eb|--------------0-----------|
Bb|----------0-----0---0-----|
Gb|------8-----8-----8-----8-|
Db|----6---6-------------6---|x4(on forth let high 0 note ring)
Ab|--4-----------------------|
Eb|--------------------------|

Verse
eb|-0000000000-000000000-00000000000000000000-|
Bb|-0000000000-000000000-00000000000000000000-|
Gb|-2222222222-444444444-66666666666666666666-|
Db|-2222222222-444444444-66666666666666666666-|x4
Ab|-0000000000-222222222-44444444444444444444-|
Eb|-0000000000-xxxxxxxxx-xxxxxxxxxxxxxxxxxxxx-|

Chorus
eb|-0000000000-0000000000-0000000000-0000000000-|
Bb|-0000000000-0000000000-0000000000-0000000000-|
Gb|-1111111111-2222222222-1111111111-6666666666-|
Db|-2222222222-2222222222-2222222222-6666666666-|x2
Ab|-2222222222-0000000000-2222222222-4444444444-|
Eb|-0000000000-0000000000-0000000000-xxxxxxxxxx-|

Pre-chorus
eb|-000000000000x-|
Bb|-000000000000x-|
Gb|-222222222222x-|
Db|-222222222222x-|
Ab|-000000000000x-|
Eb|-000000000000x-|

Intro
eb|--------------0-----------|
Bb|----------0-----0---0-----|
Gb|------8-----8-----8-----8-|
Db|----6---6-------------6---|x2
Ab|--4-----------------------|
Eb|--------------------------|

Verse
eb|-0000000000-0000000000-00000000000000000000-|
Bb|-0000000000-0000000000-00000000000000000000-|
Gb|-2222222222-4444444444-66666666666666666666-|
Db|-2222222222-4444444444-66666666666666666666-|x4
Ab|-0000000000-2222222222-44444444444444444444-|
Eb|-0000000000-xxxxxxxxxx-xxxxxxxxxxxxxxxxxxxx-|

Chorus
eb|-0000000000-0000000000-0000000000-0000000000-|
Bb|-0000000000-0000000000-0000000000-0000000000-|
Gb|-1111111111-2222222222-1111111111-6666666666-|
Db|-2222222222-2222222222-2222222222-6666666666-|x2
Ab|-2222222222-0000000000-2222222222-4444444444-|
Eb|-0000000000-0000000000-0000000000-xxxxxxxxxx-|

Pre-chorus
eb|-000000000000-|
Bb|-000000000000-|
Gb|-222222222222-|
Db|-222222222222-|
Ab|-000000000000-|
Eb|-000000000000-|

Bridge
eb|-0000000000-0000000000-0000000000-0000000000-|
Bb|-0000000000-0000000000-0000000000-0000000000-|
Gb|-6666666666-8888888888-2222222222-4444444444-|
Db|-6666666666-8888888888-2222222222-4444444444-|x2
Ab|-4444444444-6666666666-0000000000-2222222222-|
Eb|-xxxxxxxxxx-xxxxxxxxxx-0000000000-xxxxxxxxxx-|

Bridge 2(play over guitar 2's solo)
eb|-0000000000-0000000000-0000000000-0000000000-|
Bb|-0000000000-0000000000-0000000000-0000000000-|
Gb|-6666666666-4444444444-2222222222-4444444444-|
Db|-6666666666-4444444444-2222222222-4444444444-|x4
Ab|-4444444444-2222222222-0000000000-2222222222-|
Eb|-xxxxxxxxxx-xxxxxxxxxx-0000000000-xxxxxxxxxx-|

Bridge 3
eb|-0~0000000000-000000000000000x-|
Bb|-0~0000000000-000000000000000x-|
Gb|-1~6666666666-444444444444444x-|
Db|-2~6666666666-444444444444444x-|
Ab|-2~4444444444-222222222222222x-|
Eb|-0~xxxxxxxxxx-xxxxxxxxxxxxxxxx-|

Chorus
eb|-0000000000-0000000000-0000000000-0000000000-|
Bb|-0000000000-0000000000-0000000000-0000000000-|
Gb|-1111111111-2222222222-1111111111-6666666666-|
Db|-2222222222-2222222222-2222222222-6666666666-|x2
Ab|-2222222222-0000000000-2222222222-4444444444-|
Eb|-0000000000-0000000000-0000000000-xxxxxxxxxx-|

Outro (figure out strumming its not specified here)
eb|-0000000000-0000000000-000000000-000000000000000000x-|
Bb|-0000000000-0000000000-000000000-000000000000000000x-|
Gb|-1111111111-2222222222-111111111-222222222222222222x-|
Db|-2222222222-2222222222-222222222-222222222222222222x-|
Ab|-2222222222-0000000000-222222222-000000000000000000x-|
Eb|-0000000000-0000000000-000000000-000000000000000000x-|

eb|--------------0-----------|
Bb|----------0-----0---0-----|
Gb|------8-----8-----8-----8-|
Db|----6---6-------------6---|x4(at the end of the fourth, strum)
Ab|--4-----------------------|
Eb|--------------------------|






    Guitar 2 -Ryan (note) this is in Db tuning... just tune your low e string to Db
----------------------

Verse
eb|-0~0~0~-|
Bb|-0~0~0~-|
Gb|-2~4~6~-|
Db|-2~4~6~-|
Ab|-0~2~4~-|
Db|-x~x~x~-|

Verse 1 cont.
eb|-0-0--0-0--0-0--|
Bb|-0--0-0--0-0--0-|
Gb|-2~---4~---6~---|
Db|-2~---4~---6~---|
Ab|-0~---2~---4~---|
Db|-x~---x~---x~---|

verse 1 cont.
eb|-0000000000-0000000000-00000000000000000000-|
Bb|-0000000000-0000000000-00000000000000000000-|
Gb|-2222222222-4444444444-66666666666666666666-|
Db|-2222222222-4444444444-66666666666666666666-|x2
Ab|-0000000000-2222222222-44444444444444444444-|
Db|-xxxxxxxxxx-xxxxxxxxxx-xxxxxxxxxxxxxxxxxxxx-|

Chorus(best i could get)... figure out strumming....
eb|-0000000000-0000000000-0000000000-0000000000-|
Bb|-0000000000-0000000000-0000000000-0000000000-|
Gb|-9999999999-2222222222-9999999999-6666666666-|
Db|-9999999999-2222222222-9999999999-6666666666-|
Ab|-7777777777-0000000000-7777777777-4444444444-|
Db|-xxxxxxxxxx-xxxxxxxxxx-7777777777-xxxxxxxxxx-|

Chorus (ontinued)
eB|-0000000000-0000000000-0000000000-0000000000-|
Bb|-0000000000-0000000000-0000000000-0000000000-|
Gb|-9999999999-9999999999-9999999999-6666666666-|
Db|-9999999999-9999999999-9999999999-6666666666-|
Ab|-7777777777-7777777777-7777777777-4444444444-|
Db|-xxxxxxxxxx-7777777777-xxxxxxxxxx-xxxxxxxxxx-|

Pre-Chorus(guitar 1)
Intro(Guitar 1)

Verse
eb|-0000000000-0000000000-00000000000000000000-|
Bb|-0000000000-0000000000-00000000000000000000-|
Gb|-2222222222-4444444444-66666666666666666666-|
Db|-2222222222-4444444444-66666666666666666666-|x4
Ab|-0000000000-2222222222-44444444444444444444-|
Db|-xxxxxxxxxx-xxxxxxxxxx-xxxxxxxxxxxxxxxxxxxx-|

Chorus(best i could get)... figure out strumming....
eb|-0000000000-0000000000-0000000000-0000000000-|
Bb|-0000000000-0000000000-0000000000-0000000000-|
Gb|-9999999999-2222222222-9999999999-6666666666-|
Db|-9999999999-2222222222-9999999999-6666666666-|
Ab|-7777777777-0000000000-7777777777-4444444444-|
Db|-xxxxxxxxxx-xxxxxxxxxx-7777777777-xxxxxxxxxx-|

Chorus (ontinued)
eB|-0000000000-0000000000-0000000000-0000000000-|
Bb|-0000000000-0000000000-0000000000-0000000000-|
Gb|-9999999999-9999999999-9999999999-6666666666-|
Db|-9999999999-9999999999-9999999999-6666666666-|
Ab|-7777777777-7777777777-7777777777-4444444444-|
Db|-xxxxxxxxxx-7777777777-xxxxxxxxxx-xxxxxxxxxx-|

Post Chorus
eb|-000000000000-|
Bb|-000000000000-|
Gb|-222222222222-|
Db|-222222222222-|
Ab|-000000000000-|
Db|-xxxxxxxxxxxx-|

Bridge (again best i could get wierd stuff in between but close) these are 11's
eb|-0000000000-0000000000-0000000000-0000000000-0000000000-|
Bb|-0000000000-0000000000-0000000000-0000000000-0000000000-|
Gb|-6666666666-8888888888-9999999999/1111111111/1616161616-|
Db|-6666666666-8888888888-9999999999/1111111111/1616161616-|
Ab|-4444444444-6666666666-0000000000-0000000000-0000000000-|
Db|-xxxxxxxxxx-xxxxxxxxxx-xxxxxxxxxx-xxxxxxxxxx-xxxxxxxxxx-|

Bridge (continued)
eb|-0000000000-0000000000-0000000000-0000000000-0~-|
Bb|-0000000000-0000000000-0000000000-0000000000-0~-|
Gb|-6666666666-8888888888-9999999999/1111111111-4~-|
Db|-6666666666-8888888888-9999999999/1111111111-4~-|
Ab|-4444444444-6666666666-0000000000/0000000000-2~-|
Db|-xxxxxxxxxx-xxxxxxxxxx-xxxxxxxxxx-xxxxxxxxxx-x~-|

Solo: this is deffinantly almost if not 100% right.. i dare you to prove me wrong...
eb|--------------------------------------------------------------------------------|
Bb|-55-4444-55-4444-4/99-4444-4/99-4444-121212121212-12/141414141414-14/1616161616-| 
Gb|--------------------------------------------------------------------------------|
Db|--------------------------------------------------------------------------------|
Ab|--------------------------------------------------------------------------------|
Db|--------------------------------------------------------------------------------|
Pm  .. .... .. .... ....... .......

eb|-------------------------------------------------------|
Bb|-5-4-0--5-4-0--5-4-0--5-4-0--5/7-5-7/9-7-121212-12-12b-|
Gb|-------------------------------------------------------|
Db|-------------------------------------------------------|
Ab|-------------------------------------------------------|
Db|-------------------------------------------------------|

eb|-----------------------------------------------------|
Bb|-----------------------------------------------------|
Gb|---------------------------9-8-9-9-9h11-9-11p9-9-8---|
Db|----------11-11b-11---9h11-------------------------9-|
Ab|-----9h11----------9h11------------------------------|
Db|-9h11------------------------------------------------|

eb|---------------------------------------------------------------------------------|
Bb|-55-4444--55-4444--4/77-4444--4/99-4444--121212121212-141414141414-161616161616~-|
Gb|---------------------------------------------------------------------------------|
Db|---------------------------------------------------------------------------------|
Ab|---------------------------------------------------------------------------------|
Db|---------------------------------------------------------------------------------|
PM  .. ....  .. ....  . .. ....  . .. ....

Bridge 3 (guitar1)

Chorus(best i could get)... figure out strumming....
eb|-0000000000-0000000000-0000000000-0000000000-|
Bb|-0000000000-0000000000-0000000000-0000000000-|
Gb|-9999999999-2222222222-9999999999-6666666666-|
Db|-9999999999-2222222222-9999999999-6666666666-|
Ab|-7777777777-0000000000-7777777777-4444444444-|
Db|-xxxxxxxxxx-xxxxxxxxxx-7777777777-xxxxxxxxxx-|

Chorus (continued)

eb|-0000000000-0000000000-0000000000-000000000000-|
Bb|-0000000000-0000000000-0000000000-000000000000-|
Gb|-9999999999-9999999999-9999999999/161616161616-|something like this
Db|-9999999999-9999999999-9999999999/161616161616-|
Ab|-7777777777-7777777777-0000000000-000000000000-|
Db|-xxxxxxxxxx-7777777777-xxxxxxxxxx-xxxxxxxxxxxx-|

Outro
eb|-0000000000-0000000000-000000000-0000000000000000-|
Bb|-0000000000-0000000000-000000000-0000000000000000-|
Gb|-4444444444-2222222222-444444444-xxxxxxxxxxxxxxxx-|
Db|-2222222222-2222222222-222222222-1414141414141414-|x2
Ab|-2222222222-0000000000-222222222-1212121212121212-|
Db|-2222222222-0000000000-222222222-1212121212121212-|

eb|-000000000000x-|
Bb|-000000000000x-|
Gb|-222222222222x-| improve with strumming.
Db|-222222222222x-|
Ab|-000000000000x-|
Db|-xxxxxxxxxxxxx-|



Intro(guitar 1). 




Thats it, I'm sure this is one of the closest 
one's out there on the Sessions on AOL Sidewalks version... 
Enjoy and feel free to email me at blforsythe@zoominternet.net 
for any comments... Thanks SOTY ROCKS!!!!

Tap to rate this tab
# A B C D E F G H I J K L M N O P Q R S T U V W X Y Z