Guitaretab - guitar tabs
Song name
# A B C D E F G H I J K L M N O P Q R S T U V W X Y Z

Story Of The Year - Swallow The Knife tab

Story Of The Year: Swallow The Knife
Number Six on Page Avenue
Tabbed By: athsmador
email: anothervivacarter@yahoo.com
Tuning: Drop D
Time Sig.: 6/8

this song has two guitars, but they both play pretty much the same thing except for 
say gtr 1 and  gtr 2

Intro
(clean)
E|----------------------------------------|
B|----------------------------------------|
G|-888888888888888888888888---------------|
D|-666666666666666666666666---------------|
A|-444444444444444444444444---------------|
D|----------------------------------------|

Verse (figure out rhytmn)

E|--------------------------------------|
B|--------------------------------------|
G|-888888--666666--888888--666666-------|
D|-666666--666666--666666--666666-------|
A|-444444--444444--444444--444444-------|
D|--------------------------------------|

E|---------000000----------000000-----------|
B|---------000000----------000000-----------|
G|-444444--444444--444444--444444-----------|
D|-444444--444444--444444--444444-----------|
A|-222222--222222--222222--222222-----------|
D|------------------------------------------|

Pre-Chorus (clean)


E|------------------------|
B|------------------------|
G|-222222222222222-4-444--|
D|-222222222222222-4-444--|
A|-000000000000000-2-222--|
D|------------------------|


E|------------------------|
B|------------------------|
G|-222222222222222-4-444--|
D|-222222222222222-4-444--|
A|-000000000000000-2-222--|
D|------------------------|

Chorus (clean)
E|------------------------------------|
B|------------------------------------|
G|-666666--999999--444444--444444-----|
D|-666666--999999--444444--444444-----|
A|-444444--777777--222222--222222-----|
D|------------------------------------|

E|-------------------------|
B|-------------------------|
G|-666666--999999--4-~-----|
D|-666666--999999--4-~-----|
A|-444444--777777--2-~-----|
D|-------------------------|

2nd verse

E|---------------------|
B|---------------------|
G|-888888--666666------|
D|-666666--666666------|
A|-444444--444444------|
D|---------------------|

E|---------000000------|
B|---------000000------|
G|-444444--444444------|
D|-444444--444444------|
A|-222222--222222------|
D|---------------------|

Chorus (Distortion)

The first guitar (probably phil)does this:
E|------------------------------------|
B|------------------------------------|
G|-666666--999999--444444--444444-----|
D|-666666--999999--444444--444444-----|
A|-444444--777777--222222--222222-----|
D|------------------------------------|
[ Tab from: http://www.guitaretab.com/s/story-of-the-year/49135.html ]
E|------------------------------------|
B|------------------------------------|
G|-666666--999999--444444--444444-----|
D|-666666--999999--444444--444444-----|
A|-444444--777777--222222--222222-----|
D|------------------------------------| (x2)

Gtr 2(The Nose probably)

E|------------------------------------|
B|------------------------------------|
G|-666666--999999--444444--444444-----|
D|-666666--999999--444444--444444-----|
A|-444444--777777--222222--222222-----|
D|-666666--999999--222222--222222-----|

E|------------------------------------|
B|------------------------------------|
G|-666666--999999--444444--444444-----|
D|-666666--999999--444444--444444-----|
A|-444444--777777--222222--222222-----|
D|-666666--999999--222222--222222-----| ( x 2)

Bridge  words are spoken...
E|--------------------------|
B|--------------------------|
G|-222222222222222222-444---|
D|-222222222222222222-444---|
A|-000000000000000000-222---|
D|--------------------------|

E|--------------------------|
B|--------------------------|
G|-222222222222222222-444---|
D|-222222222222222222-444---|
A|-000000000000000000-222---|
D|--------------------------|

      so lets make this night...
E|-----------------------------------|
B|-----------------------------------|
G|-----------------------------------|
D|-11-11-11-11-11-11--666666--777777-|
A|-11-11-11-11-11-11--666666--777777-|
D|-11-11-11-11-11-11--666666--777777-|

E|---------------------------------------|
B|---------------------------------------|
G|---------------------------------------|
D|-11-11-11-11-11-11--666666--77777777---|
A|-11-11-11-11-11-11--666666--77777777---|
D|-11-11-11-11-11-11--666666--77777777---|

 be our best mistake..
E|---------------------|
B|---------------------|
G|---------------------|
D|-99996666------------|
A|-99996666------------|
D|-99996666------------|
    so lets take the time...
E|-------------------------------------|
B|-------------------------------------|
G|-------------------------------------|
D|-11------66666666-77777777-99999999--|
A|-11-(x8)-66666666-77777777-99999999--|
D|-11------66666666-77777777-99999999--|

Interlude
E|------------------------------------|
B|------------------------------------|
G|------------------------------------|
D|-777-7--777-7--777-7----------------|
A|-777-7--777-7--777-7----------------|
D|-777-7--777-7--777-7----------------|


E|------------------------------|
B|------------------------------|
G|------9--------------9--------|
D|-9-11---11-99---9-11---11-99--|
A|------------------------------|
D|------------------------------| Repeat that a lot
then the chorus repeats a few times then

 broken down.....
E|--000000-----|
B|--xxxxxx-----|
G|--666666-----|
D|--666666-----| (x4)
A|--444444-----|
D|-------------|

end on B:
E|-------------|
B|-------------|
G|--4~---------|
D|--4~---------|
A|--2~---------|
D|-------------|
Related for Swallow The Knife tab