Song name
# A B C D E F G H I J K L M N O P Q R S T U V W X Y Z

Story Of The Year - Our Time Is Now tab

Help us improve GuitareTab! Take a short survey!
1/2 step down

Intro 1
e--------------------------------|
b--------------------------------|
g--------------------------------|
d----------------5------4h5p4----|
a----------7-7p5---7--5-------5--|
e--12/---0------7----------------|

e----------------------------|
b----------------------------|
g--------------5-7-----7--7--|
d----------5-------7-5--9----|
a----7-7p5---7---------------|
e--0------7------------------|

e--------------------------|
b--------------------------|
g--------------------------|
d----------5------4h5p4----|
a----7-7p5---7--5-------5--|
e--0------7----------------|

e--------------------------|
b--------------------------|
g--------------------------|
d----------5------4h5p4----|
a----7-7p5---7--5-------5--|
e--0------7----------------|

e----------------------------|
b----------------------------|
g----------------------------|
d----------5-----------------|
a----7-7p5-------------------|
e--0------7---7--5--3--2-3-0-|

Intro 2
e--------------------------|
b--------------------------|
g--------------------------|
d----------5------4h5p4----|
a----7-7p5---7--5-------5--|
e--0------7----------------|

e-------------------------10--------|
b----------------------------10-----|
g---------------7-5---9-------------|
d----------5--------5---7-----------|
a----7-7p5---7----------------------|
e--0------7-------------------------|

e----------------------------|
b----------------------------|
g----------------------------|
d----------5-----------------|
a----7-7p5-------------------|
e--0------7---7--5--3--2-3-0-|

e--------------------------|
b--------------------------|
g--------------------------|
d----------5------4h5p4----|
a----7-7p5---7--5-------5--|
e--0------7----------------|

Verse (repeat as necessary)
e----------13p12~-----|
b-----------------13~-|
g---------------------|
d--22222--------------|
a--22222--------------|
e--00000--------------|

chorus
e--------------------------|------------------------|--------------------|
b--------------------------|------------------------|--------------------|
g--------55555-77777777777-|------------------------|-777777777777777777-|
d-22222~-55555-77777777777-|22-------5--22------5---|-777777777777777777-|
a-22222~-33333-55555555555-|22--7p5---7-22--7p5---7-|-555555555555555555-|
e-00000~-------------------|00------7---00-----7----|--------------------|
                            .           .
Pre Verse
e--------------------------|
b--------------------------|
g--------------------------|
d--------------------------|
a----7-7p5---7V~-----------|
e--0------7----------------|

Repeat Verse
Repeat Chorus
Repeat Pre Verse
Repeat 2nd part of intro

Breakdown
e------------------------|
b------------------------|
g------------------------|
d------------------------|
a------------------------|
e-0~---2~---3~---5~---0~-|

All Muted - (Something like this)
Second guitar plays someting in the back round
e-----------------------------------------|----------|
b-----------------------------------------|----------| Play alot more eb's
g----------------------------------5~--7~-|----------| and dont play the end
d-22222-2222-22222-2222-22222-2222-5~--7~-|--5--7p5--| riff the second time
a-22222-2222-22222-2222-22222-2222-3~--5~-|7--7----7-|
e-00000-0000-00000-0000-00000-0000--------|----------|

e------|
b------|
g------|
d-7p5--
a----5-|
e------|

Repeat ^ Lots in between these chords
e-----------------------------|
b-----------------------------|
g-55555-------777777777777-5~-|
d-55555-22222-777777777777-5~-|
a-33333-22222-555555555555-3~-|
e-------00000-----------------|

Repeat chorus
repeat pre verse
repeat intro (Sorry don't know the solo at the end)

Thats all, this is 99% correct, Plz rate this tab!
Related for Our Time Is Now tab