Song name
# A B C D E F G H I J K L M N O P Q R S T U V W X Y Z

Story Of The Year - March Of The Dead tab

Intro
Guitar 1
e|----------------|
b|----------------|
g|---7\-----------|
d|-0-7\-----------|
a|-0-5\-----------|
d|-0--------------|
Guitar 2
e|----------------|
b|---15\----------|
g|----------------|
d|-0-12\----------|
a|-0--------------|
d|-0--------------|
Pre Verse (both guitars)
e|--------------------------|
b|--------------------------|
g|----10-9-7-55-5/7-5/7-x---|
d|--0-10-9-7-55-5/7-5/7-x-0-|
a|--0--8-7-5-33-3/5-3/5-x-0-|
d|--0-------------------x-0-|

e|--------------------------|    |-------|
b|--------------------------|    |-------|
g|-7/10-9-7-55-5/7-5/7-x----|    |-------|
d|-7/10-9-7-55-5/7-5/7-x-0--| x4 |---1---| Fourth Ending
a|-5/-8-7-5-33-3/5-3/5-x-0--|    |---1---|
d|---------------------x-0--|    |---1---|

Pre Verse x4

Fourth Time (Guitar 1)
e|--------------------------|
b|--------------------------|
g|--7/10-9-7-55-------------|
d|--7/10-9-7-55-5h7-5h7-5h7-|
a|--5/-8-7-5-33-------------|
d|--------------------------|
(hammer on the 5h7 or just
bend the 7th fret 3 times)

Fourth time (guitar 2)
e|----------------------------------|
b|----------------------------------|
g|--7/10-9-7-55---12h14-12h14-12h14-|
d|--7/10-9-7-55---------------------|
a|--5/-8-7-5-33---------------------|
d|----------------------------------|
(same deal, hammer the 12h14 or just
bend the 14 three times)

Verse (guitar 1)
e-----------------------------------|
b-----------------------------------|
g-----------------------------------|
d--------00-0-------00-0--3---3-----|  x2
a--5p3h5-00-0-5p3h5-00-0----3---3---|
d--------00-0-------00-0------------|
         .. .       .. .
Verse (guitar 2)
e|----------------------------------|
b|-------------------------6---6----|
g|--7p5h7-00-0-7p5h7-00-0----5---5--|
d|--------00-0-------00-0-----------|  x2
a|--------00-0-------00-0-----------|
d|----------------------------------|
          .. .       .. .
verse continued (both guitars
e|--------------------------------------|
b|--------------------------------------|
g|--7p5h7--------7p5h7-------10\5-10\5--|
d|--7p5h7--00-0--7p5h7--00-0-10\5-10\5--|  x2
a|--5p3h5--00-0--5p3h5--00-0--8\3--8\3--|
d|---------00-0---------00-0------------|
           .. .         .. .
On the second ending
e|--------------------------------------|
b|--------------------------------------|
g|--10\5--10\5--10\5--10\5--555-777-3---|
d|--10\5--10\5--10\5--10\5--555-777-3---|
a|---8\3---8\3---8\3---8\3--333-555-1---|
d|--------------------------------------|
                            ... ...
Chorus (both guitars)
e|--------------------------------------------|
b|--------------------------------------------|
g|----7-10-5555-5-7-3333--7-10-5555-5-7-3333--|
d|----7-10-5555-5-7-3333--7-10-5555-5-7-3333--|
a|----5--8-3333-3-5-1111--5--8-3333-3-5-1111--|
d|--------------------------------------------|

e|--------------------------------------------|
b|--------------------------------------------|
g|----7-10-5555-5-7-3333--3-2------5----------|
d|----7-10-5555-5-7-3333--3-2-3333-5----------|
a|----5--8-3333-3-5-1111--1-0-3333-3----------|
d|----------------------------3333------------|

Pre verse x2
verse x2

(end of second time playing verse)
e|---------------------------------|
b|---------------------------------|
g|----5---3------------------------|
d|--3-5-0-3------------------------|
a|--3-3-0-1------------------------|
d|--3---0--------------------------|

verse continued x2
Chorus

Bridge
e|-----------------------------------------------------|
b|-----------------------------------------------------|
g|---10-9-7-55-7-3-1010-9-5---10-9-7-55-3-3-1010-9-5---|
d|-0-10-9-7-55-7-3-1010-9-5-0-10-9-7-55-3-3-1010-9-5-0-|
a|-0--8-7-5-33-5-1--8-8-7-3-0--8-7-5-33-5-1--8-8-7-3-0-|
d|-0------------------------0------------------------0-|

Bridge continued
e|---------------------------------------------------------------|
b|---------------------------------------------------------------|
g|---10-9-7-55-7-3-1010-9-5---10-9-7-55-3-3-1010-9-5-1010-9-12---|
d|-0-10-9-7-55-7-3-1010-9-5-0-10-9-7-55-3-3-1010-9-5-1010-9-12-0-|
a|-0--8-7-5-33-5-1--8-8-7-3-0--8-7-5-33-5-1--8-8-7-3--8-8-7-10-0-|
d|-0------------------------0----------------------------------0-|

Bridge Part 2...
e|-------------------------------------------------------|
b|-------------------------------------------------------|
g|----------5-------5-10-3333----5-----------------------|
d|--0-----3-5-0000--5-10-3333--3-5-0--7-7-557-8-88-8-----|
a|--0-----3-3-0000--3--8-1111--3-3-0--7-7-557-8-88-8-----|
d|--0-----3---0000------------3---0--7-7-557-8-88-8------|
                                               ..
Bridge Part 2 continued
e|-------------------------------------------------------|
b|-------------------------------------------------------|
g|----5-------5-7-3333----5------------------------------|
d|--3-5-0000--5-7-3333--3-5-0----------------------------|
a|--3-3-0000--3-5-1111--3-3-0----------------------------|
d|--3---0000------------3---0----------------------------|

Guitar 1
e|-------------------------------------------------------|
b|-------------------------------------------------------|
g|--22222222-33333333-55555555-77777777------------------|
d|--22222222-33333333-55555555-77777777------------------|
a|--00000000-11111111-33333333-55555555------------------|
d|-------------------------------------------------------|

Guitar 2
e|-------------------------------------------------------|
b|-55555555-66666666-88888888-1010101010101010-----------|
g|-------------------------------------------------------|
d|-22222222-33333333-55555555--7-7-7-7-7-7-7-------------|
a|-------------------------------------------------------|
d|-------------------------------------------------------|

Chorus2 (this is where it gets weird)
e|-----------------------------------------------------------------|
b|-----------------------------------------------------------------|
g|-5-7-3333-7-9-5555-5-7-3333-7-9-5555-5-7-3333-7-9-5555-5-7-3333--|
d|-5-7-3333-7-9-5555-5-7-3333-7-9-5555-5-7-3333-7-9-5555-5-7-3333--|
a|-3-5-1111-5-7-3333-3-5-1111-5-7-3333-3-5-1111-5-7-3333-3-5-1111--|
d|-----------------------------------------------------------------|

e|------------------------|
b|------------------------|
g|-3-2--------------------|
d|-3-2-3333---------------|
a|-1-0-3333---------------|
d|-----3333---------------|

Repeat chorus

solo
e|-21b\--13-10-10h12h13-15-------------------------|
b|-------------------------17h18-------------------|
g|-------------------------------17----------------|
d|----------------------------------14h15p14-12----|
a|-------------------------------------------------|
d|-------------------------------------------------|

e|------------------------------------------------------|
b|----------------------------------------------5h6p5---|
g|----------12b-------------10-9---10--------5h7------5-|
d|-12-14-15-----10-10----7-------7----5---5h7-----------|
a|------------------------------------------------------|
d|------------------------------------------------------|

e|------------------------------------------------------|
b|------------------------------------------------------|
g|----------------------5-------------------------------|
d|-----7-5-3-2h3p2--------------------------------------|
a|-----------------3-3----------------------------------|
d|------------------------------------------------------|

I'm still working out the notes that
lead to the outro, which is the same
as the Pre Verse

any adjustments (god knows it needs them) feel
free to im me at pappasmurf0912 or e-mail me at
jastrate@twcny.rr.com
Tap to rate this tab
# A B C D E F G H I J K L M N O P Q R S T U V W X Y Z