Song name
# A B C D E F G H I J K L M N O P Q R S T U V W X Y Z

Story Of The Year - Until Hte Day I Die tab

intro
guitar 1
|---------5------------5-------|
|-0-3-0-3---3-0-3-3-0-3--3-0-3-|
|------------------------------|
|------------------------------|
|------------------------------|
|------------------------------|
 . . . .   . . . . . .  . . . 


guitar 2
|-----------------------------|
|-----------------------------|
|-----------------------------|
|-444-444-44------------------|
|-222-222-22555-555-555-55777-|
|-----------333-333-333-33555-|

guitar 1
|---------5-------------5----------------5-------------6-------|
|-0-3-0-3---3-0-3-3-0-3---3-0-3--0-3-0-3---3-0-3-3-0-3---3-0-3-|
|--------------------------------------------------------------|
|--------------------------------------------------------------|
|--------------------------------------------------------------|
|--------------------------------------------------------------|
  . . . .  . . . . . .    . . . . . . .    . . . . . .  . . .
guitar 2
|-----------------------------------------|
|-----------------------------------------|
|-----------------------------------------|
|-44444444----------7777777777------------|
|-222222225555555555555555555577777777777-|
|---------3333333333----------55555555555-|
guitar 1
|---------5------------5-------|
|-0-3-0-3---3-0-3-3-0-3--3-0-3-|
|------------------------------|
|------------------------------|
|------------------------------|
|------------------------------|
 . . . .   . . . . . .  . . . 
guitar 1
|---------5-------------5----------------5-------------6-------|
|-0-3-0-3---3-0-3-3-0-3---3-0-3--0-3-0-3---3-0-3-3-0-3---3-0-3-|
|--------------------------------------------------------------|
|--------------------------------------------------------------|
|--------------------------------------------------------------|
|--------------------------------------------------------------|
  . . . .  . . . . . .    . . . . . . .    . . . . . .  . . .
guitar 2
|-----------------------------------------|
|-----------------------------------------|
|-----------------------------------------|
|-44444444----------7777777777------------|
|-222222225555555555555555555577777777777-|
|---------3333333333----------55555555555-|
  .......................................
chorus
|-----------------------|
|-----------------------| play  4 time
|-----------------------| first time nothing second time im not shure but 
|----------444444444444-| third and fourth play the intro
|-555--777-222222222222-|
|-333--555--------------|

guitar 1
|---------5------------5-------|
|-0-3-0-3---3-0-3-3-0-3--3-0-3-|
|------------------------------|
|------------------------------|
|------------------------------|
|------------------------------|
 . . . .   . . . . . .  . . . 

make shure to leave out the first palm mute befor the note

|-----------------------------------------|
|-----------------------------------------|
|-----------------------------------------|
|-44444444----------7777777777------------|
|-222222225555555555555555555577777777777-|
|---------3333333333----------55555555555-|
   ....... ......... ......... ..........

chorus
|-----------------------|
|-----------------------| play  4 time
|-----------------------| first time nothing second time im not shure but 
|----------444444444444-| third and fourth play the intro
|-555--777-222222222222-|
|-333--555--------------|

|----------------------------|
|----------------------------|
|----------------------------|
|-44------------44-----------|
|-22-77-55~555--22-77-55~555-|
|--- 55-33~333-----55-33~333-|
|---------5------------5-------|
|-0-3-0-3---3-0-3-3-0-3--3-0-3-|
|------------------------------|
|------------------------------|
|------------------------------|
|------------------------------|
 . . . .   . . . . . .  . . . 

|--------------------------------------|
|--------------------------------------|
|--------------------------------------|
|-44444444-----------------------------|
|-222222227777777777555555555555555555-|
|---------5555555555333333333333333333-|
  ....................................

|---------5------------5-------|
|-0-3-0-3---3-0-3-3-0-3--3-0-3-|
|------------------------------|
|------------------------------|
|------------------------------|
|------------------------------|
 . . . .   . . . . . .  . . . 
chorus
|-----------------------|
|-----------------------| play  4 time            for the lead with this 
|-----------------------| first time nothing second time im not shure but 
|----------444444444444-| third and fourth play the intro
|-555--777-222222222222-|
|-333--555--------------|

|-----------------------------|
|-----------------------------|
|-----------------------------|
|-444-444-44------------------|
|-222-222-22555-555-555-55777-|
|-----------333-333-333-33555-|

|-----------|
|-----------|
|-----------|
|-44--------|
|-22-77-55~-|
|----55-33~-|

.-palm mute

~-let ring

Tap to rate this tab
# A B C D E F G H I J K L M N O P Q R S T U V W X Y Z