Song name
# A B C D E F G H I J K L M N O P Q R S T U V W X Y Z

Story Of The Year - Wake Up The Voiceless tab

-----------------------------------------------------------------------------|
         ----> STORY OF THE YEAR - Wake up the Voiceless <-------------------|
-----------------------------------------------------------------------------|
Tabbed by:Josh J
Email:jj_karmas_gonna_getcha@hotmail.com

Tuning:Db, Ab, Db, Gb, Bb, Eb

INTRO

Guitar:1 (on clean)
eb|-----------------------------------|
Bb|---5-6-----5-6-----5-6-----5-6-----|
Gb|-------5~------5~------5~------5~-o|
Db|----------------------------------o|
Ab|-----------------------------------|
Db|-----------------------------------|
   (This continues to the first verse)

Guitar:2 (Distorted)
eb|------------------------------------------------------------------------|
Bb|------------------------------------------------------------------------|
Gb|------------------------------------------------------------------------|
Db|---0~------00-0~------10~------10~------10------------------------------|
Ab|---0~------00-0~------10~------8~-------10------------------------------|
Db|---0~------00-0~------10~------8~-------10------------------------------|
    (after starting riff)

VERSE 1

Guitar:2
eb|------------------------------------------------------------------------|
Bb|------------------------------------------------------------------------|
Gb|------------------------------------------------------------------------|
Db|----------------------------10~------10~--------------------------------|
Ab|-----'blade of the knife'---8~-------8~---------------------------------|
Db|----------------------------8~-------8~---------------------------------|


Pre Chorus

Guitar:1
eb|------------------------------------------------------------------------|
Bb|---5-6-----5-6-----5-6--------------------------------------------------|
Gb|-------5~------5~------5~-----------------------------------------------|
Db|-------------------------------10101010---11111111----------------------|
Ab|-------------------------------10101010---11111111----------------------|
Db|-------------------------------10101010---11111111----------------------|
                                  * * * *    * * * *
                                (these are 10's and 11's)
Guitar:2
eb|------------------------------------------------------------------------|
Bb|------------------------------------------------------------------------|
Gb|------------------------------------------------------------------------|
Db|---88888888---1010101010101010---88888888---10101010---11111111---------|
Ab|---88888888---1010101010101010---88888888---10101010---11111111---------|
Db|---88888888---1010101010101010---88888888---10101010---11111111---------|


Chorus

Guitar:1+2                                            (Play this all twice)
eb|------------------------------|---------------------------------|
Bb|------------------------------|---------------------------------|
Gb|------------------------------|------------10101010------------o|
Db|---00---88-10---00---88-10----|---88888888-10101010-10101010---o|
Ab|---00---88-10---00---88-10----|---88888888-8 8 8 8--10101010----|
Db|---00---88-10---00---88-10----|---88888888----------10101010----|
                        Repeat x2 then

Guitar:1+2
eb|-------|
Bb|-------|
Gb|-------|
Db|---0~--| (Break - down into verse 2)
Ab|---0~--|
Db|---0~--|


Verse 2

Guitar:2
eb|------------------------------------------------------------------------|
Bb|------------------------------------------------------------------------|
Gb|------------------------------------------------------------------------|
Db|----------------------------10~------10~--------------------------------|
Ab|-----'profits will rise'----8~-------8~---------------------------------|
Db|----------------------------8~-------8~---------------------------------|


Pre Chorus

Guitar:1
eb|------------------------------------------------------------------------|
Bb|---5-6-----5-6-----5-6--------------------------------------------------|
Gb|-------5~------5~------5~-----------------------------------------------|
Db|-------------------------------10101010---11111111----------------------|
Ab|-------------------------------10101010---11111111----------------------|
Db|-------------------------------10101010---11111111----------------------|
                                  * * * *    * * * *
                                (these are 10's and 11's)
Guitar:2
eb|------------------------------------------------------------------------|
Bb|------------------------------------------------------------------------|
Gb|------------------------------------------------------------------------|
Db|---88888888---1010101010101010---88888888---10101010---11111111---------|
Ab|---88888888---1010101010101010---88888888---10101010---11111111---------|
Db|---88888888---1010101010101010---88888888---10101010---11111111---------|

Chorus 2

Guitar:1+2                                            (Play this all twice)
eb|------------------------------|---------------------------------|
Bb|------------------------------|---------------------------------|
Gb|------------------------------|------------10101010------------o|
Db|---00---88-10---00---88-10----|---88888888-10101010-10101010---o|
Ab|---00---88-10---00---88-10----|---88888888-8 8 8 8--10101010----|
Db|---00---88-10---00---88-10----|---88888888----------10101010----|
                        Repeat x2 then

Bridge

Guitar:1                      repeat x3 then
eb|------------------------------------|---------------------|
Bb|------------------------------------|---------------------|
Gb|------(with slight pinch harmonic)--|---------------------|
Db|---00--5-3h5---00--5-3h5---00-3-----|---00--5-3h5--3333-2-|
Ab|---00----------00----------00-3-----|---00---------3333-2-|
Db|---00----------00----------00-3-----|---00---------3333-2-|

Guitar:1+2                          repeat x3 then
eb|------------------------------------------|-----------------------------|
Bb|------------------------------------------|-----------------------------|
Gb|------------------------------------------|-----------------------------|
Db|---00--15-10h12---00--15-10h12---00-3-----|---00--15-10h12--3333-2222---|
Ab|---00--15-10h12---00--15-10h12---00-3-----|---00--15-10h12--3333-2222---|
Db|---00--15-10h12---00--15-10h12---00-3-----|---00--15-10h12--3333-2222---|

Guitar:1+2                   repeat x4
eb|---------------------------------|
Bb|---------------------------------|
Gb|---------------------------------|
Db|---88888888---1010101010101010---|
Ab|---88888888---1010101010101010---|
Db|---88888888---1010101010101010---|


Guitar:2
eb|-------|
Bb|-------|
Gb|-------|
Db|---0~--| (Break - down into verse 3)
Ab|---0~--|
Db|---0~--|

Guitar:1

eb|--------------|
Bb|--------6-----|
Gb|----------5---|
Db|---xx-0-------| (repeat until pre-chorus)
Ab|--------------|
Db|--------------|

Pre-chorus

Guitar:2
eb|------------------------------------------------------------------------|
Bb|------------------------------------------------------------------------|
Gb|------------------------------------------------------------------------|
Db|---88888888---1010101010101010---88888888---10101010---11111111---------|
Ab|---88888888---1010101010101010---88888888---10101010---11111111---------|
Db|---88888888---1010101010101010---88888888---10101010---11111111---------|
                                                           (11's)
Chorus

eb|----------------------------------|
Bb|----------------------------------|
Gb|----------------------------------|
Db|---00----8\----10\-----0-00-------|
Ab|---00----8\----10\-----0-00-------|
Db|---00----8\----10\-----0-00-------|
      **                    **

Guitar:1+2
eb|------------------------------|--------------------------------|
Bb|------------------------------|--------------------------------|
Gb|------------------------------|--------------------------------|
Db|---00---88-10---00---88-10----|--88888888-1010101010101010-----|
Ab|---00---88-10---00---88-10----|--88888888-1010101010101010-----|
Db|---00---88-10---00---88-10----|--88888888-1010101010101010-----|
                        Repeat x2 then
Guitar:1+2                                 (play all twice)
eb|--------------|----------------------------------------|
Bb|--------------|----------------------------------------|
Gb|--------------|------------10101010--------------------|
Db|---00-3-00----|---88888888-10101010-1010101010101010---|
Ab|---00-3-00-3--|---88888888-8-8-8-8--1010101010101010---|
Db|---00-3-00----|---88888888----------1010101010101010---|
        Repeat x4 then

eb|-------------------------------|
Bb|-------------------------------|
Gb|-------------------------------|
Db|---88888888-1010101010101010---|
Ab|---88888888-1010101010101010---|
Db|---88888888-1010101010101010---|

Coda (played twice while fadeing out)

Guitar:1+2
eb|-------|
Bb|-------|
Gb|-------|
Db|-3~-2~-|
Ab|-3~-2~-|
Db|-3~-2~-|

Guitar:1+2
eb|----------------|
Bb|----------------|
Gb|----------------|
Db|--00--15-10h12--|
Ab|--00--15-10h12--| repeat x9
Db|--00--15-10h12--|

Guitar:1+2
eb|-----------|
Bb|-----------|
Gb|-----------|
Db|--00-3~-2~-|
Ab|--00-3~-2~-|
Db|--00-3~-2~-|

Guitar:1+2
eb|----------------|
Bb|----------------|
Gb|----------------|
Db|--00--15-10h12--|
Ab|--00--15-10h12--| repeat x9
Db|--00--15-10h12--|

Guitar:1+2
eb|------------------|
Bb|------------------|
Gb|------------------|
Db|--00-3~-2~-0~-10~-|
Ab|--00-3~-2~-0~-10~-|
Db|--00-3~-2~-0~-10~-|


 Legend

| /  slide up
| \  slide down
| h  hammer-on
| p  pull-off
| ~  vibrato
| +  harmonic
| x  Mute note
| *  Stickado

That's about it. I was a little unsure about some parts. all-in-all an easy song. If you 
any questions or corrections send them to jj_karmas_gonna_getcha@hotmail.com

                  This is the first tab i've ever done so enjoy!!!
Tap to rate this tab
# A B C D E F G H I J K L M N O P Q R S T U V W X Y Z