Song name
# A B C D E F G H I J K L M N O P Q R S T U V W X Y Z

Story Of The Year - Until The Day I Die Acoustic tab

song:until the day i die (acoustic)
band:story of the year
tabbed by:Go0cH*69

.= palm mute
x= mute note/string
p= pull off

=========
guitar 1 
=========

intro
e|------------------|---------------|
b|-----------3------|-------3-------|
g|----0---0------0--|---0-------0---| x11 0r x12 not too sure
d|--2---2------2----|-2---2---2-----|
a|------------------|---------------|
e|------------------|---------------|

pre-verse
e|-333-333-33-333----------------|
b|-111-111-11-111-333-333-33-111-|
g|----------------222-222-22-222-| x2
d|---------------------------000-|
a|-------------------------------|
e|-------------------------------|

verse 1 
e|------------------|---------------|
b|-----------3------|-------3-------|
g|----0---0------0--|---0-------0---| repeat to chorus
d|--2---2------2----|-2---2---2-----|
a|------------------|---------------|
e|------------------|---------------|

chorus 1
e|---------------|---------------|
b|--33333--------|--33333---5p3--|
g|--------0---0--|--------0------| x4
d|----------2----|---------------|
a|---------------|---------------|
e|---------------|---------------|

verse 2
e|------------------|---------------|
b|-----------3------|-------3-------|
g|----0---0------0--|---0-------0---| repeat to chorus
d|--2---2------2----|-2---2---2-----|
a|------------------|---------------|
e|------------------|---------------|

chorus 2
e|---------------|---------------|
b|--33333--------|--33333---5p3--|
g|--------0---0--|--------0------| x4
d|----------2----|---------------|
a|---------------|---------------|
e|---------------|---------------|

interlude
e|--xx-xx-11111111--|
b|--xx-33-11111111--|
g|--22-00-11111111--| x4
d|--22-xx-33333333--|
a|--00-22-33333333--|
e|-----33-11111111--|

bridge part 1
e|------------------|---------------|
b|-----------3------|-------3-------|
g|----0---0------0--|---0-------0---| x2
d|--2---2------2----|-2---2---2-----|
a|------------------|---------------|
e|------------------|---------------|

bridge part 2
e|-----------0-------|--------2--------|
b|-----------3-------|--------3--------|
g|----0---0--2----0--|---0----2----0---| around x8
d|--2---2----0--2----|-2---2--0--2-----|
a|-------------------|-----------------|
e|-------------------|-----------------|
    . . . .     . .    . . .     . .

chorus 3
e|---------------|---------------|
b|--33333--------|--33333---5p3--|
g|--------0---0--|--------0------| x4
d|----------2----|---------------|
a|---------------|---------------|
e|---------------|---------------|

chorus continued
e|--111111-xxxxxx-xxxxxxxxxxxxx-|
b|--111111-333333-xxxxxxxxxxxxx-|
g|--111111-000000-2222222222222-| x2
d|--333333-xxxxxx-2222222222222-|
a|--333333-222222-0000000000000-|
e|--111111-333333-xxxxxxxxxxxxx-|

outro part 1
e|-333-333-33-333----------------|
b|-111-111-11-111-333-333-33-111-|
g|----------------222-222-22-222-| x2
d|---------------------------000-|
a|-------------------------------|
e|-------------------------------|

outro part 2
e|-xx-xx-11-|
b|-xx-33-11-|
g|-22-00-11-|
d|-22-xx-33-|
a|-00-22-33-|
e|----33-11-|

=========
guitar 2
=========

intro
e|--1-x--x-|
b|--1-3--x-|
g|--1-0--2-| x4
d|--3-x--2-|
a|--3-2--0-|
e|--1-3--x-|

pre-verse
e|--x-x-x--x-x-x--xxx-------1-1-1--1-1-1--111xxx---|
b|--x-x-x--x-x-x--xxx0000---1-1-1--1-1-1--111000---|
g|--x-x-x--x-x-x--xxx0000---1-1-1--1-1-1--111000---| x2
d|--2-2-2--2-2-2--222xxxx---3-3-3--3-3-3--333xxx---|
a|--0-0-0--0-0-0--0002233---3-3-3--3-3-3--333222---|
e|--------------------------1-1-1--1-1-1--111333---|

verse 1 part 1
e|---------------------------|
b|--22222-11111-11111-33333--|
g|--22222-11111-00000-00000--|
d|--22222-33333-22222-xxxxx--| x2
a|--00000-33333-33333-22222--|
e|--------11111-------33333--|

verse 1 part 2
e|---------------------------------------|
b|--22222222-11111111-11111111-33333333--|
g|--22222222-11111111-00000000-00000000--| x2
d|--22222222-33333333-22222222-xxxxxxxx--|
a|--00000000-33333333-33333333-22222222--|
e|-----------11111111----------33333333--|

chorus 1
e|--111xxx-xxx-xxx-xxxxxxxxxxxxx-|
b|--111xxx-033-xxx-xxxxxxxxxxxxx-|
g|--111xxx-000-xxx-2222222222222-| x4
d|--333xxx-xxx-xxx-2222222222222-|
a|--333xxx-222-xxx-0000000000000-|
e|--111xxx-333-xxx-xxxxxxxxxxxxx-|

verse 2 part 1
e|---------------------------|
b|--22222-11111-11111-33333--|
g|--22222-11111-00000-00000--|
d|--22222-33333-22222-xxxxx--| x2
a|--00000-33333-33333-22222--|
e|--------11111-------33333--|

verse 2 part 2
e|---------------------------------------|
b|--22222222-11111111-11111111-33333333--|
g|--22222222-11111111-00000000-00000000--| x2
d|--22222222-33333333-22222222-xxxxxxxx--|
a|--00000000-33333333-33333333-22222222--|
e|-----------11111111----------33333333--|

chorus 2
e|--111xxx-xxx-xxx-xxxxxxxxxxxxx-|
b|--111xxx-333-xxx-xxxxxxxxxxxxx-|
g|--111xxx-000-xxx-2222222222222-| x4
d|--333xxx-xxx-xxx-2222222222222-|
a|--333xxx-222-xxx-0000000000000-|
e|--111xxx-333-xxx-xxxxxxxxxxxxx-|

interlude
e|--xx-xx-11111111--|
b|--xx-33-11111111--|
g|--22-00-11111111--| x4
d|--22-xx-33333333--|
a|--00-22-33333333--|
e|-----33-11111111--|

bridge part 1
e|-xxxxxxxxxxxxxxxxxxxx-|
b|-22222222222222222222-|
g|-22222222222222222222-|
d|-22222222222222222222-|
a|-00000000000000000000-|
e|-xxxxxxxxxxxxxxxxxxxx-|
   ....................

bridge part 2
e|-xxxxxxxxxxxxxxxxxxxx-|
b|-22222222222222222222-|
g|-22222222222222222222-|
d|-22222222222222222222-| gradually get louder
a|-00000000000000000000-|
e|-xxxxxxxxxxxxxxxxxxxx-|

e|--1-x--x-|
b|--1-3--x-|
g|--1-0--2-| x2
d|--3-x--2-|
a|--3-2--0-|
e|--1-3--x-|

chorus 3
e|--111xxx-xxx-xxx-xxxxxxxxxxxxx-|
b|--111xxx-000-xxx-xxxxxxxxxxxxx-|
g|--111xxx-000-xxx-2222222222222-| x3
d|--333xxx-xxx-xxx-2222222222222-|
a|--333xxx-222-xxx-0000000000000-|
e|--111xxx-333-xxx-xxxxxxxxxxxxx-|

chorus continued
e|--111111-xxxxxx-xxxxxxxxxxxxx-|
b|--111111-000000-xxxxxxxxxxxxx-|
g|--111111-000000-2222222222222-| x2
d|--333333-xxxxxx-2222222222222-|
a|--333333-222222-0000000000000-|
e|--111111-333333-xxxxxxxxxxxxx-|

outro part 1
e|--x-x-x--x-x-x--xxx-------1-1-1--1-1-1--111xxx---|
b|--x-x-x--x-x-x--xxx0000---1-1-1--1-1-1--111000---|
g|--x-x-x--x-x-x--xxx0000---1-1-1--1-1-1--111000---| x2
d|--2-2-2--2-2-2--222xxxx---3-3-3--3-3-3--333xxx---|
a|--0-0-0--0-0-0--0002233---3-3-3--3-3-3--333222---|
e|--------------------------1-1-1--1-1-1--111333---|

outro part 2
e|-xx-xx-11-|
b|-xx-33-11-|
g|-22-00-11-|
d|-22-xx-33-|
a|-00-22-33-|
e|----33-11-|

thats the whole tab
any questions or comments email me on your mummas email coz ill be with her 
Tap to rate this tab
 
# A B C D E F G H I J K L M N O P Q R S T U V W X Y Z