Guitaretab - guitar tabs
Song name
# A B C D E F G H I J K L M N O P Q R S T U V W X Y Z

Story Of The Year - A Sillent Murder tab

A Silent Murder

  Awesome song to play.


e|-------<12>-----------------------------|
b|----<12>--<12>-<7>--------<7>-----------|  
g|-------------<5>-<7>---<5>---<7>--------|  4 Times
d|----------------------------------------| 
a|----------------------------------------|
E|--0-------------------------------------|

Verse
[ Tab from: http://www.guitaretab.com/s/story-of-the-year/92402.html ]
e|-----2h3p2--3--3/5\3--3-----------------|
b|----------3-5--5/7\5--3-----------------|
g|----------------------0-----------------|  4 Times
d|----------------------2-----------------|
a|----------------------3-----------------|
E|--0-------------------0-----------------|

Chorus

e|--3---s---3----s---3/5\2--2h3p2--3----s---3----s---3p2-------|
b|--3--ht---3---ht---5/7\3--3------3---ht---3---ht---3---------|
g|--0--ir---0---ir-----------------0---ir---0---ir---2---------|
d|--2--ti---2---ti-----------------0---ti---0---ti---0---------|
a|--3---n---3----n-----------------2----n---2----n-------------|
E|--0---g---0----g-----------------3----g---3----g-------------|
        s        s                      s        s

I will figure out the rest later.
Related for A Sillent Murder tab
×
A Sillent Murder