Song name
# A B C D E F G H I J K L M N O P Q R S T U V W X Y Z

Story Of The Year - Silent Murder Slow Jam tab

Story Of The Year
Silent Murder/Slow Jam
In The Wake Of Determination
Tabbed By: BtBaM125
Tuning: Half Step Down
(Eb,Ab,Db,Gb,Bb,Eb)

* = Harmonics
h = Hammer on
p = Pull off
t = String tap  {This means smack strings by bridge with palm}
/ = Slide up
\\ = Slide down
x = Dead Note


(Intro)
Eb|-------12*--------------------------|
Bb|----12*----12*----7*--------7*------|
Gb|--------------5*----7*--5*----7*----|X2
Db|------------------------------------|
Ab|------------------------------------|
Eb|--0---------------------------------|
     .
(Verse)
Eb|---2h3p2--3-5\\3-3---2h3p2--3-5\\3-3-2-2h3p2---2-2h3p2------------|
Bb|--------3-5-7\\5-3--------3-5-7\\5-3---------3---------3---0------|
Gb|----------------0----------------0---------------------2----------|X2
Db|----------------2----------------2--------------------------------|
Ab|----------------3----------------3--------------------------------|
Eb|-0--------------x-0--------------x-----------------------0--------|

(Chorus)
Eb|-3t3t-3/5--5--2-----2-----7---7---7-------2t-|
Bb|--t-t------0-----------0-------------------t-|
Gb|--t-t-----------------------7---7---7------t-|X2
Db|-2t2t-2/5-----0--0--------5---5---5----5--0t-|
Ab|--t-t--------------------------------------t-|
Eb|--t-t--------------------------------------t-|


(Verse 2)
Eb|---2h3p2--3-5\\3-3---2h3p2--3-5\\3-3-2-2h3p2---2-2h3p2------------|
Bb|--------3-5-7\\5-3--------3-5-7\\5-3---------3---------3---0------|
Gb|----------------0----------------0---------------------2----------|X2
Db|----------------2----------------2--------------------------------|
Ab|----------------3----------------3--------------------------------|
Eb|-0--------------x-0--------------x-----------------------0--------|


(Chorus)
Eb|-3t3t-3/5--5--2-----2-----7---7---7-------2t-|
Bb|--t-t------0-----------0-------------------t-|
Gb|--t-t-----------------------7---7---7------t-|X2
Db|-2t2t-2/5-----0--0--------5---5---5----5--0t-|
Ab|--t-t--------------------------------------t-|
Eb|--t-t--------------------------------------t-|


(Outro Verse)Play all of this 1st time  [Play this 2nd time]
Eb|---2h3p2---3-5\\3--3----2h3p2---3-5\\3-|-3-----------|
Bb|---------3-5-7\\5--3----------3-5-7\\5-|-3----0------|
Gb|------------------0------------------|-0---2---------|X2
Db|------------------2------------------|-2--0----------|
Ab|------------------3------------------|-3-3-----------|
Eb|-0----------------x--0---------------|-x-------------|

 (Last Chord)
Eb|------0----|
Bb|-----0-----|
Gb|----0------|
Db|---2-------|
Ab|--2--------|
Eb|-0---------|

This song is better played with your fingers... but choose whatever is more comfortable to you.

I believe this version is a little more accurate than the others... email me at 
with any questions or comments...
Tap to rate this tab
# A B C D E F G H I J K L M N O P Q R S T U V W X Y Z