Song name
# A B C D E F G H I J K L M N O P Q R S T U V W X Y Z

Storyville - Share That Smile tab

E--2--2--2--------2-----------2--------4-------------------2------2-|
B--2--2--2------2----2-----2-----2-----2----2------------2------2---|
G--3--1--3---4----------3--------------1----1h3p1------1------1-----|
D--x--x--x-----------------------------x-----------4-1--------------|
A--x--x--x-----------------------------x----------------------------|
E--x--x--x-----------------------------x----------------------------|

E--2--2--2--4--2h4--2----------------------------|
B--2--2--2--2--2----2----------------------------|
G--3--4--3--1--1----1----------------------------|
D--x--x--x--x--x----x----------------------------|
A--x--x--x--x--x----x----------------------------|
E--x--x--x--x--x----x----------------------------|

Thats it, i'm still working on the rest of the song so bear with me

Tabbed by:Kevin Potts
Tap to rate this tab
# A B C D E F G H I J K L M N O P Q R S T U V W X Y Z