Song name
# A B C D E F G H I J K L M N O P Q R S T U V W X Y Z

Straatligkinders - Gedagte Vir Die Dag tab

-------------------------------------------------------------------------------
			     GEDAGTE VIR DIE DAG - Straatligkinders
-------------------------------------------------------------------------------
Tabbed by: D@vid953
Email: davidmarais@rocketmail.com

Tuning: Standard

e|---------------------------------------------------------------------------|
B|---------------------------------------------------------------------------|
G|------------------------------------------------7-77-x--2------------------|
D|--------2--------------2--------------2---------7-77-x--2------------------|
A|------------------------------------------------5-55-x--0------------------|
E|--0h2h3---0-3-2--0h2h3---0-2-3--0h2h3---0-3-2-------------3-2--------------|  x4

e|---------------------------------------------------------------------------|
B|---------------------------------------------------------------------------|
G|----------5-55--------------9-12-7-----------------------------------------|
D|-2-22-----5-55-----5-55-----x--x-x-----------------------------------------|
A|-2-22-----3-33-----5-55-----7-10-5-----------------------------------------|
E|-0-00--------------3-33----------------------------------------------------|

e|---------------------------------------------------------------------------|
B|---------------------------------------------------------------------------|
G|-------9-99999999--5-55--12-1212121212121212-----------------9-12-7--------|
D|-2-22--x-xxxxxxxx--5-55---x--x-x-x-x-x-x-x-x--5-55-5-5-55-5--x--x-x--------|
A|-2-22--7-77777777--3-33--10-1010101010101010--5-55-5-5-55-5--7-10-5--------|
E|-0-00-----------------------------------------3-33-3-3-33-3----------------|  x2

e|---------------------------------------------------------------------------|
B|-------------------------------------------------------------------------12|
G|-----------------5-55--5-5-55-5------------------7-77--7-7-77-7----------x-|
D|-2-22--2-2-22-2--5-55--5-5-55-5--5-55--5-5-55-5--7-77--7-7-77-7--4xTimes-9-|
A|-2-22--2-2-22-2--3-33--3-3-33-3--5-55--5-5-55-5--5-55--5-5-55-5------------|
E|-0-00--0-0-00-0------------------3-33--3-3-33-3----------------------------|  

e|---------------------------------------------------------------------------|
B|---------------------------------------------------------------------------|
G|---------------------9-12-7------------------------------------------------|
D|-9-x16-5-x16---------x--x-x------------------------------------------------|
A|-7-----3-----5-x16---7-10-5------------------------------------------------|
E|-------------3-------------------------------------------------------------|
   .     .     .

e|---------------------------------------------------------------------------|
B|---------------------------------------------------------------------------|
G|-------9-99999999--5-55--12-1212121212121212-----------------9-12-7--------|
D|-2-22--x-xxxxxxxx--5-55---x--x-x-x-x-x-x-x-x--5-55-5-5-55-5--x--x-x--------|
A|-2-22--7-77777777--3-33--10-1010101010101010--5-55-5-5-55-5--7-10-5--------|
E|-0-00-----------------------------------------3-33-3-3-33-3----------------| 

e|---------------------------------------------------------------------------|
B|---------------------------------------------------------------------------|
G|-----------------5-55--5-5-55-5------------------7-77--7-7-77-7------------|
D|-2-22--2-2-22-2--5-55--5-5-55-5--5-55--5-5-55-5--7-77--7-7-77-7------------|
A|-2-22--2-2-22-2--3-33--3-3-33-3--5-55--5-5-55-5--5-55--5-5-55-5------------|
E|-0-00--0-0-00-0------------------3-33--3-3-33-3----------------------------|  x2

e|---------------------------------------------------------------------------|
B|---------------------------------------------------------------------------|
G|-------5--------5--------5-----------------------------5-------------------|
D|-22-22-5--22-22-5--55-55-5--55--55-444-----------22-22-5--22-22------------|
A|-22-22-3--22-22-3--55-55-3--55--55-444--2xtimes--22-22-3--22-22------------|
E|-00-00----00-00----33-55----33--33-222-----------00-00----00-00------------|

e|---------------------------------------------------------------------------|
B|---------------------------------------------------------------------------|
G|-----------------5-55--5-5-55-5------------------7-77--7-7-77-7------------|
D|-2-22--2-2-22-2--5-55--5-5-55-5--5-55--5-5-55-5--7-77--7-7-77-7------------|
A|-2-22--2-2-22-2--3-33--3-3-33-3--5-55--5-5-55-5--5-55--5-5-55-5------------|
E|-0-00--0-0-00-0------------------3-33--3-3-33-3----------------------------|  x4  

e|---------------------------------------------------------------------------|
B|---------------------------------------------------------------------------|
G|------------------------------------------------7-77-x--2------------------|
D|--------2--------------2--------------2---------7-77-x--2-----2------------|
A|------------------------------------------------5-55-x--0-----2------------|
E|--0h2h3---0-3-2--0h2h3---0-2-3--0h2h3---0-3-2-------------3-2-0------------|


| /  slide up
| \  slide down
| h  hammer-on
| p  pull-off
| ~  vibrato
| +  harmonic
| x  Mute note
| .  Palm muted
===============================================================================
Tap to rate this tab
# A B C D E F G H I J K L M N O P Q R S T U V W X Y Z